ISO-10303-21;
HEADER;
/* Generated by software containing ST-Developer
 * from STEP Tools, Inc. (www.steptools.com) 
 */
/* OPTION: using custom schema-name function */

FILE_DESCRIPTION(
/* description */ (''),
/* implementation_level */ '2;1');

FILE_NAME(
/* name */ 'e03a-1001-0.stp',
/* time_stamp */ '2020-12-15T15:01:24+01:00',
/* author */ (''),
/* organization */ (''),
/* preprocessor_version */ 'ST-DEVELOPER v11',
/* originating_system */ 'SIEMENS UGS NX 6.0',
/* authorisation */ '');

FILE_SCHEMA (('CONFIG_CONTROL_DESIGN'));
ENDSEC;

DATA;
#10=SHAPE_REPRESENTATION_RELATIONSHIP('None',
'relationship between perl164Cd8ul-None and perl164Cd8ul-None',#94,#11);
#11=ADVANCED_BREP_SHAPE_REPRESENTATION('perl164Cd8ul-None',(#95),#321);
#12=CC_DESIGN_APPROVAL(#24,(#82));
#13=CC_DESIGN_APPROVAL(#25,(#84));
#14=CC_DESIGN_APPROVAL(#26,(#31));
#15=APPROVAL_PERSON_ORGANIZATION(#69,#24,#18);
#16=APPROVAL_PERSON_ORGANIZATION(#70,#25,#19);
#17=APPROVAL_PERSON_ORGANIZATION(#71,#26,#20);
#18=APPROVAL_ROLE('approver');
#19=APPROVAL_ROLE('approver');
#20=APPROVAL_ROLE('approver');
#21=APPROVAL_DATE_TIME(#39,#24);
#22=APPROVAL_DATE_TIME(#40,#25);
#23=APPROVAL_DATE_TIME(#41,#26);
#24=APPROVAL(#27,' ');
#25=APPROVAL(#28,' ');
#26=APPROVAL(#29,' ');
#27=APPROVAL_STATUS('not_yet_approved');
#28=APPROVAL_STATUS('not_yet_approved');
#29=APPROVAL_STATUS('not_yet_approved');
#30=CC_DESIGN_SECURITY_CLASSIFICATION(#31,(#84));
#31=SECURITY_CLASSIFICATION(' ',' ',#32);
#32=SECURITY_CLASSIFICATION_LEVEL('confidential');
#33=CC_DESIGN_DATE_AND_TIME_ASSIGNMENT(#37,#35,(#82));
#34=CC_DESIGN_DATE_AND_TIME_ASSIGNMENT(#38,#36,(#31));
#35=DATE_TIME_ROLE('creation_date');
#36=DATE_TIME_ROLE('classification_date');
#37=DATE_AND_TIME(#52,#42);
#38=DATE_AND_TIME(#53,#43);
#39=DATE_AND_TIME(#54,#44);
#40=DATE_AND_TIME(#55,#45);
#41=DATE_AND_TIME(#56,#46);
#42=LOCAL_TIME(0,0,0.,#47);
#43=LOCAL_TIME(0,0,0.,#48);
#44=LOCAL_TIME(0,0,0.,#49);
#45=LOCAL_TIME(0,0,0.,#50);
#46=LOCAL_TIME(0,0,0.,#51);
#47=COORDINATED_UNIVERSAL_TIME_OFFSET(0,0,.BEHIND.);
#48=COORDINATED_UNIVERSAL_TIME_OFFSET(0,0,.BEHIND.);
#49=COORDINATED_UNIVERSAL_TIME_OFFSET(0,0,.BEHIND.);
#50=COORDINATED_UNIVERSAL_TIME_OFFSET(0,0,.BEHIND.);
#51=COORDINATED_UNIVERSAL_TIME_OFFSET(0,0,.BEHIND.);
#52=CALENDAR_DATE(0,1,1);
#53=CALENDAR_DATE(0,1,1);
#54=CALENDAR_DATE(0,1,1);
#55=CALENDAR_DATE(0,1,1);
#56=CALENDAR_DATE(0,1,1);
#57=CC_DESIGN_PERSON_AND_ORGANIZATION_ASSIGNMENT(#65,#61,(#82,#84));
#58=CC_DESIGN_PERSON_AND_ORGANIZATION_ASSIGNMENT(#66,#62,(#86));
#59=CC_DESIGN_PERSON_AND_ORGANIZATION_ASSIGNMENT(#67,#63,(#84));
#60=CC_DESIGN_PERSON_AND_ORGANIZATION_ASSIGNMENT(#68,#64,(#31));
#61=PERSON_AND_ORGANIZATION_ROLE('creator');
#62=PERSON_AND_ORGANIZATION_ROLE('design_owner');
#63=PERSON_AND_ORGANIZATION_ROLE('design_supplier');
#64=PERSON_AND_ORGANIZATION_ROLE('classification_officer');
#65=PERSON_AND_ORGANIZATION(#79,#72);
#66=PERSON_AND_ORGANIZATION(#79,#73);
#67=PERSON_AND_ORGANIZATION(#79,#74);
#68=PERSON_AND_ORGANIZATION(#79,#75);
#69=PERSON_AND_ORGANIZATION(#79,#76);
#70=PERSON_AND_ORGANIZATION(#79,#77);
#71=PERSON_AND_ORGANIZATION(#79,#78);
#72=ORGANIZATION(' ',' ',' ');
#73=ORGANIZATION(' ',' ',' ');
#74=ORGANIZATION(' ',' ',' ');
#75=ORGANIZATION(' ',' ',' ');
#76=ORGANIZATION(' ',' ',' ');
#77=ORGANIZATION(' ',' ',' ');
#78=ORGANIZATION(' ',' ',' ');
#79=PERSON(' ',' ',' ',(' '),$,$);
#80=SHAPE_DEFINITION_REPRESENTATION(#81,#94);
#81=PRODUCT_DEFINITION_SHAPE('','',#82);
#82=PRODUCT_DEFINITION(' ','',#84,#83);
#83=DESIGN_CONTEXT('',#93,'design');
#84=PRODUCT_DEFINITION_FORMATION_WITH_SPECIFIED_SOURCE(' ',' ',#86,.NOT_KNOWN.);
#85=PRODUCT_RELATED_PRODUCT_CATEGORY('detail','',(#86));
#86=PRODUCT('perl164Cd8ul','perl164Cd8ul',' ',(#91));
#87=PRODUCT_CATEGORY_RELATIONSHIP(' ',' ',#89,#90);
#88=PRODUCT_CATEGORY_RELATIONSHIP('','',#90,#85);
#89=PRODUCT_CATEGORY('part',' ');
#90=PRODUCT_CATEGORY(' ','');
#91=MECHANICAL_CONTEXT(' ',#93,'mechanical');
#92=APPLICATION_PROTOCOL_DEFINITION('international standard',
'config_control_design',1994,#93);
#93=APPLICATION_CONTEXT(
'configuration controlled 3D designs of mechanical parts and assemblies');
#94=SHAPE_REPRESENTATION('perl164Cd8ul-None',(#218),#321);
#95=MANIFOLD_SOLID_BREP('',#96);
#96=CLOSED_SHELL('',(#106,#107,#108,#109,#110,#111,#112,#113,#114,#115,#116));
#97=PLANE('',#234);
#98=PLANE('',#238);
#99=CONICAL_SURFACE('',#225,12.7269236839942,74.9527454770113);
#100=CONICAL_SURFACE('',#227,34.6884612782882,15.0472545229889);
#101=CONICAL_SURFACE('',#229,35.,74.9527454770113);
#102=TOROIDAL_SURFACE('',#223,12.,2.8);
#103=TOROIDAL_SURFACE('',#231,12.,4.);
#104=TOROIDAL_SURFACE('',#239,7.,1.);
#105=TOROIDAL_SURFACE('',#240,7.2,2.);
#106=ADVANCED_FACE('',(#119,#120),#117,.T.);
#107=ADVANCED_FACE('',(#121,#122),#102,.F.);
#108=ADVANCED_FACE('',(#123,#124),#99,.F.);
#109=ADVANCED_FACE('',(#125,#126),#100,.T.);
#110=ADVANCED_FACE('',(#127,#128),#101,.T.);
#111=ADVANCED_FACE('',(#129,#130),#103,.T.);
#112=ADVANCED_FACE('',(#131,#132),#97,.T.);
#113=ADVANCED_FACE('',(#133,#134),#118,.F.);
#114=ADVANCED_FACE('',(#135,#136),#98,.T.);
#115=ADVANCED_FACE('',(#137,#138),#104,.F.);
#116=ADVANCED_FACE('',(#139,#140),#105,.T.);
#117=CYLINDRICAL_SURFACE('',#221,9.2);
#118=CYLINDRICAL_SURFACE('',#236,4.25);
#119=FACE_BOUND('',#141,.T.);
#120=FACE_BOUND('',#142,.T.);
#121=FACE_BOUND('',#143,.T.);
#122=FACE_BOUND('',#144,.T.);
#123=FACE_BOUND('',#145,.T.);
#124=FACE_BOUND('',#146,.T.);
#125=FACE_BOUND('',#147,.T.);
#126=FACE_BOUND('',#148,.T.);
#127=FACE_BOUND('',#149,.T.);
#128=FACE_BOUND('',#150,.T.);
#129=FACE_BOUND('',#151,.T.);
#130=FACE_BOUND('',#152,.T.);
#131=FACE_BOUND('',#153,.T.);
#132=FACE_BOUND('',#154,.T.);
#133=FACE_BOUND('',#155,.T.);
#134=FACE_BOUND('',#156,.T.);
#135=FACE_BOUND('',#157,.T.);
#136=FACE_BOUND('',#158,.T.);
#137=FACE_BOUND('',#159,.T.);
#138=FACE_BOUND('',#160,.T.);
#139=FACE_BOUND('',#161,.T.);
#140=FACE_BOUND('',#162,.T.);
#141=EDGE_LOOP('',(#163));
#142=EDGE_LOOP('',(#164));
#143=EDGE_LOOP('',(#165));
#144=EDGE_LOOP('',(#166));
#145=EDGE_LOOP('',(#167));
#146=EDGE_LOOP('',(#168));
#147=EDGE_LOOP('',(#169));
#148=EDGE_LOOP('',(#170));
#149=EDGE_LOOP('',(#171));
#150=EDGE_LOOP('',(#172));
#151=EDGE_LOOP('',(#173));
#152=EDGE_LOOP('',(#174));
#153=EDGE_LOOP('',(#175));
#154=EDGE_LOOP('',(#176));
#155=EDGE_LOOP('',(#177));
#156=EDGE_LOOP('',(#178));
#157=EDGE_LOOP('',(#179));
#158=EDGE_LOOP('',(#180));
#159=EDGE_LOOP('',(#181));
#160=EDGE_LOOP('',(#182));
#161=EDGE_LOOP('',(#183));
#162=EDGE_LOOP('',(#184));
#163=ORIENTED_EDGE('',*,*,#196,.T.);
#164=ORIENTED_EDGE('',*,*,#197,.T.);
#165=ORIENTED_EDGE('',*,*,#198,.T.);
#166=ORIENTED_EDGE('',*,*,#197,.F.);
#167=ORIENTED_EDGE('',*,*,#199,.T.);
#168=ORIENTED_EDGE('',*,*,#198,.F.);
#169=ORIENTED_EDGE('',*,*,#200,.T.);
#170=ORIENTED_EDGE('',*,*,#199,.F.);
#171=ORIENTED_EDGE('',*,*,#201,.T.);
#172=ORIENTED_EDGE('',*,*,#200,.F.);
#173=ORIENTED_EDGE('',*,*,#202,.T.);
#174=ORIENTED_EDGE('',*,*,#201,.F.);
#175=ORIENTED_EDGE('',*,*,#203,.T.);
#176=ORIENTED_EDGE('',*,*,#204,.T.);
#177=ORIENTED_EDGE('',*,*,#205,.T.);
#178=ORIENTED_EDGE('',*,*,#204,.F.);
#179=ORIENTED_EDGE('',*,*,#206,.T.);
#180=ORIENTED_EDGE('',*,*,#205,.F.);
#181=ORIENTED_EDGE('',*,*,#203,.F.);
#182=ORIENTED_EDGE('',*,*,#202,.F.);
#183=ORIENTED_EDGE('',*,*,#196,.F.);
#184=ORIENTED_EDGE('',*,*,#206,.F.);
#185=VERTEX_POINT('',#289);
#186=VERTEX_POINT('',#291);
#187=VERTEX_POINT('',#294);
#188=VERTEX_POINT('',#297);
#189=VERTEX_POINT('',#300);
#190=VERTEX_POINT('',#303);
#191=VERTEX_POINT('',#306);
#192=VERTEX_POINT('',#309);
#193=VERTEX_POINT('',#311);
#194=VERTEX_POINT('',#314);
#195=VERTEX_POINT('',#317);
#196=EDGE_CURVE('',#185,#185,#207,.T.);
#197=EDGE_CURVE('',#186,#186,#208,.T.);
#198=EDGE_CURVE('',#187,#187,#209,.T.);
#199=EDGE_CURVE('',#188,#188,#210,.T.);
#200=EDGE_CURVE('',#189,#189,#211,.T.);
#201=EDGE_CURVE('',#190,#190,#212,.T.);
#202=EDGE_CURVE('',#191,#191,#213,.T.);
#203=EDGE_CURVE('',#192,#192,#214,.T.);
#204=EDGE_CURVE('',#193,#193,#215,.T.);
#205=EDGE_CURVE('',#194,#194,#216,.T.);
#206=EDGE_CURVE('',#195,#195,#217,.T.);
#207=CIRCLE('',#219,9.2);
#208=CIRCLE('',#220,9.2);
#209=CIRCLE('',#222,12.7269236839942);
#210=CIRCLE('',#224,34.6884612782882);
#211=CIRCLE('',#226,35.);
#212=CIRCLE('',#228,13.038462405706);
#213=CIRCLE('',#230,8.);
#214=CIRCLE('',#232,7.);
#215=CIRCLE('',#233,4.25);
#216=CIRCLE('',#235,4.25);
#217=CIRCLE('',#237,7.2);
#218=AXIS2_PLACEMENT_3D('',#287,#241,#242);
#219=AXIS2_PLACEMENT_3D('',#288,#243,#244);
#220=AXIS2_PLACEMENT_3D('',#290,#245,#246);
#221=AXIS2_PLACEMENT_3D('',#292,#247,#248);
#222=AXIS2_PLACEMENT_3D('',#293,#249,#250);
#223=AXIS2_PLACEMENT_3D('',#295,#251,#252);
#224=AXIS2_PLACEMENT_3D('',#296,#253,#254);
#225=AXIS2_PLACEMENT_3D('',#298,#255,#256);
#226=AXIS2_PLACEMENT_3D('',#299,#257,#258);
#227=AXIS2_PLACEMENT_3D('',#301,#259,#260);
#228=AXIS2_PLACEMENT_3D('',#302,#261,#262);
#229=AXIS2_PLACEMENT_3D('',#304,#263,#264);
#230=AXIS2_PLACEMENT_3D('',#305,#265,#266);
#231=AXIS2_PLACEMENT_3D('',#307,#267,#268);
#232=AXIS2_PLACEMENT_3D('',#308,#269,#270);
#233=AXIS2_PLACEMENT_3D('',#310,#271,#272);
#234=AXIS2_PLACEMENT_3D('',#312,#273,#274);
#235=AXIS2_PLACEMENT_3D('',#313,#275,#276);
#236=AXIS2_PLACEMENT_3D('',#315,#277,#278);
#237=AXIS2_PLACEMENT_3D('',#316,#279,#280);
#238=AXIS2_PLACEMENT_3D('',#318,#281,#282);
#239=AXIS2_PLACEMENT_3D('',#319,#283,#284);
#240=AXIS2_PLACEMENT_3D('',#320,#285,#286);
#241=DIRECTION('',(0.,0.,1.));
#242=DIRECTION('',(1.,0.,0.));
#243=DIRECTION('',(0.,0.,1.));
#244=DIRECTION('',(-1.,0.,0.));
#245=DIRECTION('',(0.,0.,-1.));
#246=DIRECTION('',(-1.,0.,0.));
#247=DIRECTION('',(0.,0.,-1.));
#248=DIRECTION('',(-1.,0.,0.));
#249=DIRECTION('',(0.,0.,-1.));
#250=DIRECTION('',(-1.,0.,0.));
#251=DIRECTION('',(0.,0.,-1.));
#252=DIRECTION('',(-1.,0.,0.));
#253=DIRECTION('',(0.,0.,-1.));
#254=DIRECTION('',(-1.,0.,0.));
#255=DIRECTION('',(0.,0.,-1.));
#256=DIRECTION('',(-1.,0.,4.18285239673089E-018));
#257=DIRECTION('',(0.,0.,-1.));
#258=DIRECTION('',(-1.,0.,0.));
#259=DIRECTION('',(0.,0.,1.));
#260=DIRECTION('',(1.,0.,2.85765868556712E-018));
#261=DIRECTION('',(0.,0.,-1.));
#262=DIRECTION('',(-1.,0.,0.));
#263=DIRECTION('',(0.,0.,-1.));
#264=DIRECTION('',(-1.,0.,9.52162285687621E-018));
#265=DIRECTION('',(0.,0.,-1.));
#266=DIRECTION('',(-1.,0.,0.));
#267=DIRECTION('',(0.,0.,-1.));
#268=DIRECTION('',(-1.,0.,0.));
#269=DIRECTION('',(0.,0.,1.));
#270=DIRECTION('',(1.,0.,0.));
#271=DIRECTION('',(0.,0.,-1.));
#272=DIRECTION('',(-1.,0.,0.));
#273=DIRECTION('',(0.,0.,1.));
#274=DIRECTION('',(1.,0.,0.));
#275=DIRECTION('',(0.,0.,-1.));
#276=DIRECTION('',(-1.,0.,0.));
#277=DIRECTION('',(0.,0.,-1.));
#278=DIRECTION('',(-1.,0.,0.));
#279=DIRECTION('',(0.,0.,-1.));
#280=DIRECTION('',(-1.,0.,0.));
#281=DIRECTION('',(0.,0.,-1.));
#282=DIRECTION('',(-1.,0.,0.));
#283=DIRECTION('',(0.,0.,1.));
#284=DIRECTION('',(1.,0.,0.));
#285=DIRECTION('',(0.,0.,-1.));
#286=DIRECTION('',(-1.,0.,0.));
#287=CARTESIAN_POINT('',(0.,0.,0.));
#288=CARTESIAN_POINT('',(0.,0.,2.));
#289=CARTESIAN_POINT('',(-9.2,0.,2.));
#290=CARTESIAN_POINT('',(0.,0.,2.2));
#291=CARTESIAN_POINT('',(-9.2,0.,2.2));
#292=CARTESIAN_POINT('',(0.,0.,0.));
#293=CARTESIAN_POINT('',(0.,0.,4.90399370517912));
#294=CARTESIAN_POINT('',(-12.7269236839942,0.,4.90399370517912));
#295=CARTESIAN_POINT('',(0.,0.,2.2));
#296=CARTESIAN_POINT('',(0.,0.,-1.));
#297=CARTESIAN_POINT('',(-34.6884612782882,0.,-1.));
#298=CARTESIAN_POINT('',(0.,0.,4.90399370517912));
#299=CARTESIAN_POINT('',(0.,0.,0.158854445076759));
#300=CARTESIAN_POINT('',(-35.,0.,0.158854445076759));
#301=CARTESIAN_POINT('',(0.,0.,-1.));
#302=CARTESIAN_POINT('',(0.,0.,6.06284815025588));
#303=CARTESIAN_POINT('',(-13.038462405706,0.,6.06284815025588));
#304=CARTESIAN_POINT('',(0.,0.,0.158854445076759));
#305=CARTESIAN_POINT('',(0.,0.,2.2));
#306=CARTESIAN_POINT('',(-8.,0.,2.2));
#307=CARTESIAN_POINT('',(0.,0.,2.2));
#308=CARTESIAN_POINT('',(0.,0.,1.2));
#309=CARTESIAN_POINT('',(7.,0.,1.2));
#310=CARTESIAN_POINT('',(0.,0.,1.2));
#311=CARTESIAN_POINT('',(-4.25,0.,1.2));
#312=CARTESIAN_POINT('',(0.,8.,1.2));
#313=CARTESIAN_POINT('',(0.,0.,0.));
#314=CARTESIAN_POINT('',(-4.25,0.,0.));
#315=CARTESIAN_POINT('',(0.,0.,0.));
#316=CARTESIAN_POINT('',(0.,0.,0.));
#317=CARTESIAN_POINT('',(-7.2,0.,0.));
#318=CARTESIAN_POINT('',(0.,4.25,6.01563809548708E-021));
#319=CARTESIAN_POINT('',(0.,0.,2.2));
#320=CARTESIAN_POINT('',(0.,0.,2.));
#321=(
GEOMETRIC_REPRESENTATION_CONTEXT(3)
GLOBAL_UNCERTAINTY_ASSIGNED_CONTEXT((#322))
GLOBAL_UNIT_ASSIGNED_CONTEXT((#328,#324,#323))
REPRESENTATION_CONTEXT('e03a-1001-0','TOP_LEVEL_ASSEMBLY_PART')
);
#322=UNCERTAINTY_MEASURE_WITH_UNIT(LENGTH_MEASURE(2.E-005),#328,
'DISTANCE_ACCURACY_VALUE','Maximum Tolerance applied to model');
#323=(
NAMED_UNIT(*)
SI_UNIT($,.STERADIAN.)
SOLID_ANGLE_UNIT()
);
#324=(
CONVERSION_BASED_UNIT('DEGREE',#326)
NAMED_UNIT(#325)
PLANE_ANGLE_UNIT()
);
#325=DIMENSIONAL_EXPONENTS(0.,0.,0.,0.,0.,0.,0.);
#326=PLANE_ANGLE_MEASURE_WITH_UNIT(PLANE_ANGLE_MEASURE(0.0174532925),#327);
#327=(
NAMED_UNIT(*)
PLANE_ANGLE_UNIT()
SI_UNIT($,.RADIAN.)
);
#328=(
LENGTH_UNIT()
NAMED_UNIT(*)
SI_UNIT(.MILLI.,.METRE.)
);
ENDSEC;
END-ISO-10303-21;
