ISO-10303-21;
HEADER;
/* Generated by software containing ST-Developer
 * from STEP Tools, Inc. (www.steptools.com) 
 */
/* OPTION: using custom schema-name function */

FILE_DESCRIPTION(
/* description */ (''),
/* implementation_level */ '2;1');

FILE_NAME(
/* name */ 'METU_E01V-4003_KST_1.stp',
/* time_stamp */ '2018-10-08T09:45:06+02:00',
/* author */ (''),
/* organization */ (''),
/* preprocessor_version */ 'ST-DEVELOPER v11',
/* originating_system */ 'SIEMENS UGS NX 6.0',
/* authorisation */ '');

FILE_SCHEMA (('CONFIG_CONTROL_DESIGN'));
ENDSEC;

DATA;
#10=SHAPE_REPRESENTATION_RELATIONSHIP('None',
'relationship between garsFA349mv7-None and garsFA349mv7-None',#94,#11);
#11=ADVANCED_BREP_SHAPE_REPRESENTATION('garsFA349mv7-None',(#110,#111),#497);
#12=CC_DESIGN_APPROVAL(#24,(#82));
#13=CC_DESIGN_APPROVAL(#25,(#84));
#14=CC_DESIGN_APPROVAL(#26,(#31));
#15=APPROVAL_PERSON_ORGANIZATION(#69,#24,#18);
#16=APPROVAL_PERSON_ORGANIZATION(#70,#25,#19);
#17=APPROVAL_PERSON_ORGANIZATION(#71,#26,#20);
#18=APPROVAL_ROLE('approver');
#19=APPROVAL_ROLE('approver');
#20=APPROVAL_ROLE('approver');
#21=APPROVAL_DATE_TIME(#39,#24);
#22=APPROVAL_DATE_TIME(#40,#25);
#23=APPROVAL_DATE_TIME(#41,#26);
#24=APPROVAL(#27,' ');
#25=APPROVAL(#28,' ');
#26=APPROVAL(#29,' ');
#27=APPROVAL_STATUS('not_yet_approved');
#28=APPROVAL_STATUS('not_yet_approved');
#29=APPROVAL_STATUS('not_yet_approved');
#30=CC_DESIGN_SECURITY_CLASSIFICATION(#31,(#84));
#31=SECURITY_CLASSIFICATION(' ',' ',#32);
#32=SECURITY_CLASSIFICATION_LEVEL('confidential');
#33=CC_DESIGN_DATE_AND_TIME_ASSIGNMENT(#37,#35,(#82));
#34=CC_DESIGN_DATE_AND_TIME_ASSIGNMENT(#38,#36,(#31));
#35=DATE_TIME_ROLE('creation_date');
#36=DATE_TIME_ROLE('classification_date');
#37=DATE_AND_TIME(#52,#42);
#38=DATE_AND_TIME(#53,#43);
#39=DATE_AND_TIME(#54,#44);
#40=DATE_AND_TIME(#55,#45);
#41=DATE_AND_TIME(#56,#46);
#42=LOCAL_TIME(0,0,0.,#47);
#43=LOCAL_TIME(0,0,0.,#48);
#44=LOCAL_TIME(0,0,0.,#49);
#45=LOCAL_TIME(0,0,0.,#50);
#46=LOCAL_TIME(0,0,0.,#51);
#47=COORDINATED_UNIVERSAL_TIME_OFFSET(0,0,.BEHIND.);
#48=COORDINATED_UNIVERSAL_TIME_OFFSET(0,0,.BEHIND.);
#49=COORDINATED_UNIVERSAL_TIME_OFFSET(0,0,.BEHIND.);
#50=COORDINATED_UNIVERSAL_TIME_OFFSET(0,0,.BEHIND.);
#51=COORDINATED_UNIVERSAL_TIME_OFFSET(0,0,.BEHIND.);
#52=CALENDAR_DATE(0,1,1);
#53=CALENDAR_DATE(0,1,1);
#54=CALENDAR_DATE(0,1,1);
#55=CALENDAR_DATE(0,1,1);
#56=CALENDAR_DATE(0,1,1);
#57=CC_DESIGN_PERSON_AND_ORGANIZATION_ASSIGNMENT(#65,#61,(#82,#84));
#58=CC_DESIGN_PERSON_AND_ORGANIZATION_ASSIGNMENT(#66,#62,(#86));
#59=CC_DESIGN_PERSON_AND_ORGANIZATION_ASSIGNMENT(#67,#63,(#84));
#60=CC_DESIGN_PERSON_AND_ORGANIZATION_ASSIGNMENT(#68,#64,(#31));
#61=PERSON_AND_ORGANIZATION_ROLE('creator');
#62=PERSON_AND_ORGANIZATION_ROLE('design_owner');
#63=PERSON_AND_ORGANIZATION_ROLE('design_supplier');
#64=PERSON_AND_ORGANIZATION_ROLE('classification_officer');
#65=PERSON_AND_ORGANIZATION(#79,#72);
#66=PERSON_AND_ORGANIZATION(#79,#73);
#67=PERSON_AND_ORGANIZATION(#79,#74);
#68=PERSON_AND_ORGANIZATION(#79,#75);
#69=PERSON_AND_ORGANIZATION(#79,#76);
#70=PERSON_AND_ORGANIZATION(#79,#77);
#71=PERSON_AND_ORGANIZATION(#79,#78);
#72=ORGANIZATION(' ',' ',' ');
#73=ORGANIZATION(' ',' ',' ');
#74=ORGANIZATION(' ',' ',' ');
#75=ORGANIZATION(' ',' ',' ');
#76=ORGANIZATION(' ',' ',' ');
#77=ORGANIZATION(' ',' ',' ');
#78=ORGANIZATION(' ',' ',' ');
#79=PERSON(' ',' ',' ',(' '),$,$);
#80=SHAPE_DEFINITION_REPRESENTATION(#81,#94);
#81=PRODUCT_DEFINITION_SHAPE('','',#82);
#82=PRODUCT_DEFINITION(' ','',#84,#83);
#83=DESIGN_CONTEXT('',#93,'design');
#84=PRODUCT_DEFINITION_FORMATION_WITH_SPECIFIED_SOURCE(' ',' ',#86,.NOT_KNOWN.);
#85=PRODUCT_RELATED_PRODUCT_CATEGORY('detail','',(#86));
#86=PRODUCT('garsFA349mv7','garsFA349mv7',' ',(#91));
#87=PRODUCT_CATEGORY_RELATIONSHIP(' ',' ',#89,#90);
#88=PRODUCT_CATEGORY_RELATIONSHIP('','',#90,#85);
#89=PRODUCT_CATEGORY('part',' ');
#90=PRODUCT_CATEGORY(' ','');
#91=MECHANICAL_CONTEXT(' ',#93,'mechanical');
#92=APPLICATION_PROTOCOL_DEFINITION('international standard',
'config_control_design',1994,#93);
#93=APPLICATION_CONTEXT(
'configuration controlled 3D designs of mechanical parts and assemblies');
#94=SHAPE_REPRESENTATION('garsFA349mv7-None',(#255),#497);
#95=(
BOUNDED_SURFACE()
B_SPLINE_SURFACE(3,3,((#456,#457,#458,#459,#460,#461,#462),(#463,#464,#465,
#466,#467,#468,#469),(#470,#471,#472,#473,#474,#475,#476),(#477,#478,#479,
#480,#481,#482,#483)),.UNSPECIFIED.,.F.,.T.,.F.)
B_SPLINE_SURFACE_WITH_KNOTS((4,4),(1,3,3,3,1),(0.,1.),(-0.5,0.,0.5,1.,1.5),
 .UNSPECIFIED.)
GEOMETRIC_REPRESENTATION_ITEM()
RATIONAL_B_SPLINE_SURFACE(((1.,0.333333333333333,0.333333333333333,1.,0.333333333333333,
0.333333333333333,1.),(0.93937289525754,0.31312429841918,0.31312429841918,
0.93937289525754,0.31312429841918,0.31312429841918,0.93937289525754),(0.93937289525754,
0.31312429841918,0.31312429841918,0.93937289525754,0.31312429841918,0.31312429841918,
0.93937289525754),(1.,0.333333333333333,0.333333333333333,1.,0.333333333333333,
0.333333333333333,1.)))
REPRESENTATION_ITEM('')
SURFACE()
);
#96=B_SPLINE_CURVE_WITH_KNOTS('',3,(#340,#341,#342,#343,#344,#345,#346,#347,
#348,#349,#350,#351,#352,#353,#354,#355,#356,#357),.UNSPECIFIED.,.T.,.F.,
(2,2,2,2,2,2,2,2,2,2,2),(-0.125,0.,0.125,0.25,0.375,0.5,0.625,0.75,0.875,
1.,1.125),.UNSPECIFIED.);
#97=B_SPLINE_CURVE_WITH_KNOTS('',3,(#359,#360,#361,#362,#363,#364,#365,#366,
#367,#368,#369,#370,#371,#372,#373,#374,#375,#376),.UNSPECIFIED.,.T.,.F.,
(2,2,2,2,2,2,2,2,2,2,2),(-0.125,0.,0.125,0.25,0.375,0.5,0.625,0.75,0.875,
1.,1.125),.UNSPECIFIED.);
#98=B_SPLINE_CURVE_WITH_KNOTS('',3,(#378,#379,#380,#381,#382,#383,#384,#385,
#386,#387,#388,#389,#390,#391,#392,#393,#394,#395),.UNSPECIFIED.,.T.,.F.,
(2,2,2,2,2,2,2,2,2,2,2),(-0.125,0.,0.125,0.25,0.375,0.5,0.625,0.75,0.875,
1.,1.125),.UNSPECIFIED.);
#99=B_SPLINE_CURVE_WITH_KNOTS('',3,(#397,#398,#399,#400,#401,#402,#403,#404,
#405,#406,#407,#408,#409,#410,#411,#412,#413,#414),.UNSPECIFIED.,.T.,.F.,
(2,2,2,2,2,2,2,2,2,2,2),(-0.125,0.,0.125,0.25,0.375,0.5,0.625,0.75,0.875,
1.,1.125),.UNSPECIFIED.);
#100=B_SPLINE_CURVE_WITH_KNOTS('',3,(#416,#417,#418,#419,#420,#421,#422,
#423,#424,#425,#426,#427,#428,#429,#430,#431,#432,#433),.UNSPECIFIED.,.T.,
 .F.,(2,2,2,2,2,2,2,2,2,2,2),(-0.125,0.,0.125,0.25,0.375,0.5,0.625,0.75,
0.875,1.,1.125),.UNSPECIFIED.);
#101=B_SPLINE_CURVE_WITH_KNOTS('',3,(#435,#436,#437,#438,#439,#440,#441,
#442,#443,#444,#445,#446,#447,#448,#449,#450,#451,#452),.UNSPECIFIED.,.T.,
 .F.,(2,2,2,2,2,2,2,2,2,2,2),(-0.125,0.,0.125,0.25,0.375,0.5,0.625,0.75,
0.875,1.,1.125),.UNSPECIFIED.);
#102=FACE_OUTER_BOUND('',#171,.T.);
#103=FACE_OUTER_BOUND('',#182,.T.);
#104=FACE_OUTER_BOUND('',#183,.T.);
#105=FACE_OUTER_BOUND('',#184,.T.);
#106=FACE_OUTER_BOUND('',#185,.T.);
#107=FACE_OUTER_BOUND('',#186,.T.);
#108=FACE_OUTER_BOUND('',#187,.T.);
#109=FACE_OUTER_BOUND('',#188,.T.);
#110=MANIFOLD_SOLID_BREP('',#112);
#111=MANIFOLD_SOLID_BREP('',#113);
#112=CLOSED_SHELL('',(#117,#118,#119,#120));
#113=CLOSED_SHELL('',(#121,#122,#123,#124,#125,#126,#127,#128,#129,#130,
#131));
#114=CYLINDRICAL_SURFACE('',#262,15.);
#115=CYLINDRICAL_SURFACE('',#263,10.5);
#116=CYLINDRICAL_SURFACE('',#277,15.25);
#117=ADVANCED_FACE('',(#143,#144),#132,.T.);
#118=ADVANCED_FACE('',(#145,#146),#133,.T.);
#119=ADVANCED_FACE('',(#147,#148),#114,.T.);
#120=ADVANCED_FACE('',(#149,#150),#115,.F.);
#121=ADVANCED_FACE('',(#102),#134,.F.);
#122=ADVANCED_FACE('',(#151,#152,#153,#154,#155,#156,#157,#158),#95,.T.);
#123=ADVANCED_FACE('',(#159,#160),#135,.F.);
#124=ADVANCED_FACE('',(#103),#136,.F.);
#125=ADVANCED_FACE('',(#104),#137,.F.);
#126=ADVANCED_FACE('',(#105),#138,.F.);
#127=ADVANCED_FACE('',(#106),#139,.F.);
#128=ADVANCED_FACE('',(#107),#140,.F.);
#129=ADVANCED_FACE('',(#108),#141,.F.);
#130=ADVANCED_FACE('',(#109),#142,.F.);
#131=ADVANCED_FACE('',(#161,#162),#116,.F.);
#132=PLANE('',#258);
#133=PLANE('',#261);
#134=PLANE('',#265);
#135=PLANE('',#268);
#136=PLANE('',#269);
#137=PLANE('',#270);
#138=PLANE('',#271);
#139=PLANE('',#272);
#140=PLANE('',#273);
#141=PLANE('',#274);
#142=PLANE('',#276);
#143=FACE_BOUND('',#163,.T.);
#144=FACE_BOUND('',#164,.T.);
#145=FACE_BOUND('',#165,.T.);
#146=FACE_BOUND('',#166,.T.);
#147=FACE_BOUND('',#167,.T.);
#148=FACE_BOUND('',#168,.T.);
#149=FACE_BOUND('',#169,.T.);
#150=FACE_BOUND('',#170,.T.);
#151=FACE_BOUND('',#172,.T.);
#152=FACE_BOUND('',#173,.T.);
#153=FACE_BOUND('',#174,.T.);
#154=FACE_BOUND('',#175,.T.);
#155=FACE_BOUND('',#176,.T.);
#156=FACE_BOUND('',#177,.T.);
#157=FACE_BOUND('',#178,.T.);
#158=FACE_BOUND('',#179,.T.);
#159=FACE_BOUND('',#180,.T.);
#160=FACE_BOUND('',#181,.T.);
#161=FACE_BOUND('',#189,.T.);
#162=FACE_BOUND('',#190,.T.);
#163=EDGE_LOOP('',(#191));
#164=EDGE_LOOP('',(#192));
#165=EDGE_LOOP('',(#193));
#166=EDGE_LOOP('',(#194));
#167=EDGE_LOOP('',(#195));
#168=EDGE_LOOP('',(#196));
#169=EDGE_LOOP('',(#197));
#170=EDGE_LOOP('',(#198));
#171=EDGE_LOOP('',(#199));
#172=EDGE_LOOP('',(#200));
#173=EDGE_LOOP('',(#201));
#174=EDGE_LOOP('',(#202));
#175=EDGE_LOOP('',(#203));
#176=EDGE_LOOP('',(#204));
#177=EDGE_LOOP('',(#205));
#178=EDGE_LOOP('',(#206));
#179=EDGE_LOOP('',(#207));
#180=EDGE_LOOP('',(#208));
#181=EDGE_LOOP('',(#209));
#182=EDGE_LOOP('',(#210));
#183=EDGE_LOOP('',(#211));
#184=EDGE_LOOP('',(#212));
#185=EDGE_LOOP('',(#213));
#186=EDGE_LOOP('',(#214));
#187=EDGE_LOOP('',(#215));
#188=EDGE_LOOP('',(#216));
#189=EDGE_LOOP('',(#217));
#190=EDGE_LOOP('',(#218));
#191=ORIENTED_EDGE('',*,*,#233,.T.);
#192=ORIENTED_EDGE('',*,*,#234,.F.);
#193=ORIENTED_EDGE('',*,*,#235,.F.);
#194=ORIENTED_EDGE('',*,*,#236,.F.);
#195=ORIENTED_EDGE('',*,*,#234,.T.);
#196=ORIENTED_EDGE('',*,*,#236,.T.);
#197=ORIENTED_EDGE('',*,*,#235,.T.);
#198=ORIENTED_EDGE('',*,*,#233,.F.);
#199=ORIENTED_EDGE('',*,*,#237,.F.);
#200=ORIENTED_EDGE('',*,*,#238,.T.);
#201=ORIENTED_EDGE('',*,*,#239,.T.);
#202=ORIENTED_EDGE('',*,*,#240,.T.);
#203=ORIENTED_EDGE('',*,*,#241,.T.);
#204=ORIENTED_EDGE('',*,*,#242,.T.);
#205=ORIENTED_EDGE('',*,*,#243,.T.);
#206=ORIENTED_EDGE('',*,*,#244,.F.);
#207=ORIENTED_EDGE('',*,*,#237,.T.);
#208=ORIENTED_EDGE('',*,*,#245,.T.);
#209=ORIENTED_EDGE('',*,*,#244,.T.);
#210=ORIENTED_EDGE('',*,*,#243,.F.);
#211=ORIENTED_EDGE('',*,*,#242,.F.);
#212=ORIENTED_EDGE('',*,*,#241,.F.);
#213=ORIENTED_EDGE('',*,*,#240,.F.);
#214=ORIENTED_EDGE('',*,*,#239,.F.);
#215=ORIENTED_EDGE('',*,*,#238,.F.);
#216=ORIENTED_EDGE('',*,*,#246,.F.);
#217=ORIENTED_EDGE('',*,*,#246,.T.);
#218=ORIENTED_EDGE('',*,*,#245,.F.);
#219=VERTEX_POINT('',#326);
#220=VERTEX_POINT('',#328);
#221=VERTEX_POINT('',#331);
#222=VERTEX_POINT('',#333);
#223=VERTEX_POINT('',#338);
#224=VERTEX_POINT('',#358);
#225=VERTEX_POINT('',#377);
#226=VERTEX_POINT('',#396);
#227=VERTEX_POINT('',#415);
#228=VERTEX_POINT('',#434);
#229=VERTEX_POINT('',#453);
#230=VERTEX_POINT('',#455);
#231=VERTEX_POINT('',#485);
#232=VERTEX_POINT('',#494);
#233=EDGE_CURVE('',#219,#219,#247,.T.);
#234=EDGE_CURVE('',#220,#220,#248,.T.);
#235=EDGE_CURVE('',#221,#221,#249,.T.);
#236=EDGE_CURVE('',#222,#222,#250,.T.);
#237=EDGE_CURVE('',#223,#223,#251,.T.);
#238=EDGE_CURVE('',#224,#224,#96,.T.);
#239=EDGE_CURVE('',#225,#225,#97,.T.);
#240=EDGE_CURVE('',#226,#226,#98,.T.);
#241=EDGE_CURVE('',#227,#227,#99,.T.);
#242=EDGE_CURVE('',#228,#228,#100,.T.);
#243=EDGE_CURVE('',#229,#229,#101,.T.);
#244=EDGE_CURVE('',#230,#230,#252,.T.);
#245=EDGE_CURVE('',#231,#231,#253,.T.);
#246=EDGE_CURVE('',#232,#232,#254,.T.);
#247=CIRCLE('',#256,10.5);
#248=CIRCLE('',#257,15.);
#249=CIRCLE('',#259,10.5);
#250=CIRCLE('',#260,15.);
#251=CIRCLE('',#264,18.3630681719536);
#252=CIRCLE('',#266,18.3630681719536);
#253=CIRCLE('',#267,15.25);
#254=CIRCLE('',#275,15.25);
#255=AXIS2_PLACEMENT_3D('',#324,#278,#279);
#256=AXIS2_PLACEMENT_3D('',#325,#280,#281);
#257=AXIS2_PLACEMENT_3D('',#327,#282,#283);
#258=AXIS2_PLACEMENT_3D('',#329,#284,#285);
#259=AXIS2_PLACEMENT_3D('',#330,#286,#287);
#260=AXIS2_PLACEMENT_3D('',#332,#288,#289);
#261=AXIS2_PLACEMENT_3D('',#334,#290,#291);
#262=AXIS2_PLACEMENT_3D('',#335,#292,#293);
#263=AXIS2_PLACEMENT_3D('',#336,#294,#295);
#264=AXIS2_PLACEMENT_3D('',#337,#296,#297);
#265=AXIS2_PLACEMENT_3D('',#339,#298,#299);
#266=AXIS2_PLACEMENT_3D('',#454,#300,#301);
#267=AXIS2_PLACEMENT_3D('',#484,#302,#303);
#268=AXIS2_PLACEMENT_3D('',#486,#304,#305);
#269=AXIS2_PLACEMENT_3D('',#487,#306,#307);
#270=AXIS2_PLACEMENT_3D('',#488,#308,#309);
#271=AXIS2_PLACEMENT_3D('',#489,#310,#311);
#272=AXIS2_PLACEMENT_3D('',#490,#312,#313);
#273=AXIS2_PLACEMENT_3D('',#491,#314,#315);
#274=AXIS2_PLACEMENT_3D('',#492,#316,#317);
#275=AXIS2_PLACEMENT_3D('',#493,#318,#319);
#276=AXIS2_PLACEMENT_3D('',#495,#320,#321);
#277=AXIS2_PLACEMENT_3D('',#496,#322,#323);
#278=DIRECTION('',(0.,0.,1.));
#279=DIRECTION('',(1.,0.,0.));
#280=DIRECTION('',(0.,1.,0.));
#281=DIRECTION('',(-1.,0.,0.));
#282=DIRECTION('',(0.,1.,0.));
#283=DIRECTION('',(-1.,0.,0.));
#284=DIRECTION('',(0.,-1.,0.));
#285=DIRECTION('',(1.,0.,0.));
#286=DIRECTION('',(0.,1.,0.));
#287=DIRECTION('',(-1.,0.,0.));
#288=DIRECTION('',(0.,-1.,0.));
#289=DIRECTION('',(1.,0.,0.));
#290=DIRECTION('',(0.,1.,0.));
#291=DIRECTION('',(-1.,0.,0.));
#292=DIRECTION('',(0.,-1.,0.));
#293=DIRECTION('',(1.,0.,0.));
#294=DIRECTION('',(0.,1.,0.));
#295=DIRECTION('',(-1.,0.,0.));
#296=DIRECTION('',(0.,-1.,0.));
#297=DIRECTION('',(0.,0.,-1.));
#298=DIRECTION('',(0.,-1.,0.));
#299=DIRECTION('',(0.,0.,-1.));
#300=DIRECTION('',(0.,-1.,0.));
#301=DIRECTION('',(0.,0.,-1.));
#302=DIRECTION('',(0.,1.,0.));
#303=DIRECTION('',(0.,0.,1.));
#304=DIRECTION('',(0.,1.,0.));
#305=DIRECTION('',(0.,0.,1.));
#306=DIRECTION('',(1.,0.,0.));
#307=DIRECTION('',(0.,0.,-1.));
#308=DIRECTION('',(0.5,0.,-0.866025403784439));
#309=DIRECTION('',(-0.866025403784439,0.,-0.5));
#310=DIRECTION('',(-0.5,0.,-0.866025403784439));
#311=DIRECTION('',(-0.866025403784439,0.,0.5));
#312=DIRECTION('',(-1.,0.,-3.88578058618805E-016));
#313=DIRECTION('',(-3.88578058618805E-016,0.,1.));
#314=DIRECTION('',(-0.5,0.,0.866025403784438));
#315=DIRECTION('',(0.866025403784438,0.,0.5));
#316=DIRECTION('',(0.499999999999999,0.,0.866025403784439));
#317=DIRECTION('',(0.866025403784439,0.,-0.499999999999999));
#318=DIRECTION('',(0.,1.,0.));
#319=DIRECTION('',(0.,0.,1.));
#320=DIRECTION('',(0.,1.,0.));
#321=DIRECTION('',(0.,0.,1.));
#322=DIRECTION('',(0.,1.,0.));
#323=DIRECTION('',(0.,0.,1.));
#324=CARTESIAN_POINT('',(0.,0.,0.));
#325=CARTESIAN_POINT('',(-4.33680868994202E-016,10.,-8.67361737988404E-016));
#326=CARTESIAN_POINT('',(-10.5,10.,-8.67361737988404E-016));
#327=CARTESIAN_POINT('',(-4.33680868994202E-016,10.,0.));
#328=CARTESIAN_POINT('',(-15.,10.,0.));
#329=CARTESIAN_POINT('',(-4.33680868994202E-016,10.,0.));
#330=CARTESIAN_POINT('',(-4.33680868994202E-016,12.,-8.67361737988404E-016));
#331=CARTESIAN_POINT('',(-10.5,12.,-8.67361737988404E-016));
#332=CARTESIAN_POINT('',(-4.33680868994202E-016,12.,0.));
#333=CARTESIAN_POINT('',(15.,12.,0.));
#334=CARTESIAN_POINT('',(-4.33680868994202E-016,12.,0.));
#335=CARTESIAN_POINT('',(-4.33680868994202E-016,12.,0.));
#336=CARTESIAN_POINT('',(-4.33680868994202E-016,10.,-8.67361737988404E-016));
#337=CARTESIAN_POINT('',(0.,15.,0.));
#338=CARTESIAN_POINT('',(0.,15.,-18.3630681719536));
#339=CARTESIAN_POINT('',(0.,15.,0.));
#340=CARTESIAN_POINT('',(-4.09167308680393,5.89152290845171,-19.5769816711036));
#341=CARTESIAN_POINT('',(-4.09167308680393,9.10847709154828,-19.5769816711036));
#342=CARTESIAN_POINT('',(-4.71668480507293,10.6664490157423,-19.2161309873143));
#343=CARTESIAN_POINT('',(-6.73766504075259,12.8172410204279,-18.0493175042177));
#344=CARTESIAN_POINT('',(-8.12215179880833,13.4158877229672,-17.2499837017648));
#345=CARTESIAN_POINT('',(-10.8764653520989,13.4162717468294,-15.6597800303398));
#346=CARTESIAN_POINT('',(-12.2505769831914,12.8280790894392,-14.866436310232));
#347=CARTESIAN_POINT('',(-14.2891064015661,10.6619560763586,-13.6894908017824));
#348=CARTESIAN_POINT('',(-14.9070342538043,9.09634504897787,-13.3327299899529));
#349=CARTESIAN_POINT('',(-14.9096153029417,5.91418300213126,-13.3312398205386));
#350=CARTESIAN_POINT('',(-14.2896315537815,4.34244720982317,-13.6891876050095));
#351=CARTESIAN_POINT('',(-12.263787606847,2.18213909766834,-14.8588091531083));
#352=CARTESIAN_POINT('',(-10.8873046565235,1.58408977080398,-15.6535219550125));
#353=CARTESIAN_POINT('',(-8.1139077850127,1.58375073710386,-17.2547433853489));
#354=CARTESIAN_POINT('',(-6.74194065549935,2.17913037032479,-18.0468489768928));
#355=CARTESIAN_POINT('',(-4.7157124182525,4.33366569394313,-19.2166923951068));
#356=CARTESIAN_POINT('',(-4.09167308680393,5.89152290845171,-19.5769816711036));
#357=CARTESIAN_POINT('',(-4.09167308680393,9.10847709154828,-19.5769816711036));
#358=CARTESIAN_POINT('',(-4.09167308680393,7.49999999999999,-19.5769816711036));
#359=CARTESIAN_POINT('',(4.09167308680395,9.10847709154828,-19.5769816711036));
#360=CARTESIAN_POINT('',(4.09167308680395,5.8915229084517,-19.5769816711036));
#361=CARTESIAN_POINT('',(4.71668480507295,4.33355098425769,-19.2161309873143));
#362=CARTESIAN_POINT('',(6.73766504075261,2.18275897957206,-18.0493175042177));
#363=CARTESIAN_POINT('',(8.12215179880835,1.58411227703278,-17.2499837017648));
#364=CARTESIAN_POINT('',(10.8764653520989,1.58372825317061,-15.6597800303398));
#365=CARTESIAN_POINT('',(12.2505769831914,2.17192091056081,-14.866436310232));
#366=CARTESIAN_POINT('',(14.2891064015661,4.33804392364135,-13.6894908017824));
#367=CARTESIAN_POINT('',(14.9070342538043,5.90365495102214,-13.3327299899529));
#368=CARTESIAN_POINT('',(14.9096153029417,9.08581699786874,-13.3312398205386));
#369=CARTESIAN_POINT('',(14.2896315537816,10.6575527901769,-13.6891876050094));
#370=CARTESIAN_POINT('',(12.263787606847,12.8178609023317,-14.8588091531083));
#371=CARTESIAN_POINT('',(10.8873046565235,13.415910229196,-15.6535219550124));
#372=CARTESIAN_POINT('',(8.11390778501272,13.4162492628962,-17.2547433853489));
#373=CARTESIAN_POINT('',(6.74194065549935,12.8208696296752,-18.0468489768928));
#374=CARTESIAN_POINT('',(4.7157124182525,10.6663343060569,-19.2166923951068));
#375=CARTESIAN_POINT('',(4.09167308680395,9.10847709154828,-19.5769816711036));
#376=CARTESIAN_POINT('',(4.09167308680395,5.8915229084517,-19.5769816711036));
#377=CARTESIAN_POINT('',(4.09167308680395,7.49999999999999,-19.5769816711036));
#378=CARTESIAN_POINT('',(19.,13.4160797830997,1.60580714227703));
#379=CARTESIAN_POINT('',(19.,13.4160797830997,-1.60580714227703));
#380=CARTESIAN_POINT('',(19.,12.8216110319643,-3.18418077416372));
#381=CARTESIAN_POINT('',(19.,10.6647033992732,-5.52593712242942));
#382=CARTESIAN_POINT('',(19.,9.09390429362405,-6.24243831401343));
#383=CARTESIAN_POINT('',(19.,5.9241992422466,-6.24754310497416));
#384=CARTESIAN_POINT('',(19.,4.35271851362262,-5.54131859413075));
#385=CARTESIAN_POINT('',(19.,2.17324123990879,-3.1821055357264));
#386=CARTESIAN_POINT('',(19.,1.58491547007123,-1.59092553699407));
#387=CARTESIAN_POINT('',(19.,1.58292755813195,1.58264195827447));
#388=CARTESIAN_POINT('',(19.,2.18136503594263,3.18453770585335));
#389=CARTESIAN_POINT('',(19.,4.32219437770058,5.5145726617039));
#390=CARTESIAN_POINT('',(19.,5.89035248066374,6.24071453986148));
#391=CARTESIAN_POINT('',(19.,9.07959373884195,6.24924128117355));
#392=CARTESIAN_POINT('',(19.,10.6565456023261,5.53052614532195));
#393=CARTESIAN_POINT('',(19.,12.814800059951,3.19581383017939));
#394=CARTESIAN_POINT('',(19.,13.4160797830997,1.60580714227703));
#395=CARTESIAN_POINT('',(19.,13.4160797830997,-1.60580714227703));
#396=CARTESIAN_POINT('',(19.,13.4160797830997,6.00843705184118E-016));
#397=CARTESIAN_POINT('',(4.09167308680394,5.89152290845171,19.5769816711036));
#398=CARTESIAN_POINT('',(4.09167308680394,9.10847709154828,19.5769816711036));
#399=CARTESIAN_POINT('',(4.71668480507294,10.6664490157423,19.2161309873143));
#400=CARTESIAN_POINT('',(6.73766504075261,12.8172410204279,18.0493175042177));
#401=CARTESIAN_POINT('',(8.12215179880834,13.4158877229672,17.2499837017648));
#402=CARTESIAN_POINT('',(10.8764653520989,13.4162717468294,15.6597800303398));
#403=CARTESIAN_POINT('',(12.2505769831914,12.8280790894392,14.866436310232));
#404=CARTESIAN_POINT('',(14.2891064015661,10.6619560763586,13.6894908017824));
#405=CARTESIAN_POINT('',(14.9070342538042,9.09634504897785,13.3327299899529));
#406=CARTESIAN_POINT('',(14.9096153029417,5.91418300213125,13.3312398205387));
#407=CARTESIAN_POINT('',(14.2896315537815,4.34244720982313,13.6891876050095));
#408=CARTESIAN_POINT('',(12.2637876068469,2.18213909766832,14.8588091531083));
#409=CARTESIAN_POINT('',(10.8873046565235,1.58408977080397,15.6535219550125));
#410=CARTESIAN_POINT('',(8.1139077850127,1.58375073710387,17.2547433853489));
#411=CARTESIAN_POINT('',(6.74194065549936,2.17913037032482,18.0468489768928));
#412=CARTESIAN_POINT('',(4.71571241825251,4.33366569394316,19.2166923951068));
#413=CARTESIAN_POINT('',(4.09167308680394,5.89152290845171,19.5769816711036));
#414=CARTESIAN_POINT('',(4.09167308680394,9.10847709154828,19.5769816711036));
#415=CARTESIAN_POINT('',(4.09167308680397,7.5,19.5769816711036));
#416=CARTESIAN_POINT('',(-4.09167308680396,9.10847709154828,19.5769816711036));
#417=CARTESIAN_POINT('',(-4.09167308680396,5.89152290845171,19.5769816711036));
#418=CARTESIAN_POINT('',(-4.71668480507296,4.33355098425771,19.2161309873143));
#419=CARTESIAN_POINT('',(-6.73766504075262,2.18275897957208,18.0493175042177));
#420=CARTESIAN_POINT('',(-8.12215179880835,1.5841122770328,17.2499837017648));
#421=CARTESIAN_POINT('',(-10.8764653520989,1.58372825317063,15.6597800303398));
#422=CARTESIAN_POINT('',(-12.2505769831914,2.17192091056083,14.866436310232));
#423=CARTESIAN_POINT('',(-14.2891064015661,4.33804392364137,13.6894908017824));
#424=CARTESIAN_POINT('',(-14.9070342538043,5.90365495102214,13.3327299899529));
#425=CARTESIAN_POINT('',(-14.9096153029417,9.08581699786874,13.3312398205386));
#426=CARTESIAN_POINT('',(-14.2896315537815,10.6575527901768,13.6891876050094));
#427=CARTESIAN_POINT('',(-12.263787606847,12.8178609023317,14.8588091531083));
#428=CARTESIAN_POINT('',(-10.8873046565235,13.415910229196,15.6535219550125));
#429=CARTESIAN_POINT('',(-8.11390778501272,13.4162492628961,17.2547433853489));
#430=CARTESIAN_POINT('',(-6.74194065549936,12.8208696296752,18.0468489768927));
#431=CARTESIAN_POINT('',(-4.71571241825252,10.6663343060569,19.2166923951068));
#432=CARTESIAN_POINT('',(-4.09167308680396,9.10847709154828,19.5769816711036));
#433=CARTESIAN_POINT('',(-4.09167308680396,5.89152290845171,19.5769816711036));
#434=CARTESIAN_POINT('',(-4.09167308680397,7.49999999999999,19.5769816711036));
#435=CARTESIAN_POINT('',(-19.,13.4160797830997,-1.60580714227703));
#436=CARTESIAN_POINT('',(-19.,13.4160797830997,1.60580714227703));
#437=CARTESIAN_POINT('',(-19.,12.8216110319643,3.18418077416372));
#438=CARTESIAN_POINT('',(-19.,10.6647033992732,5.52593712242943));
#439=CARTESIAN_POINT('',(-19.,9.09390429362406,6.24243831401344));
#440=CARTESIAN_POINT('',(-19.,5.92419924224661,6.24754310497417));
#441=CARTESIAN_POINT('',(-19.,4.35271851362262,5.54131859413077));
#442=CARTESIAN_POINT('',(-19.,2.17324123990879,3.18210553572641));
#443=CARTESIAN_POINT('',(-19.,1.58491547007123,1.59092553699409));
#444=CARTESIAN_POINT('',(-19.,1.58292755813194,-1.58264195827446));
#445=CARTESIAN_POINT('',(-19.,2.18136503594262,-3.18453770585334));
#446=CARTESIAN_POINT('',(-19.,4.32219437770057,-5.5145726617039));
#447=CARTESIAN_POINT('',(-19.,5.89035248066373,-6.24071453986147));
#448=CARTESIAN_POINT('',(-19.,9.07959373884195,-6.24924128117355));
#449=CARTESIAN_POINT('',(-19.,10.6565456023261,-5.53052614532196));
#450=CARTESIAN_POINT('',(-19.,12.814800059951,-3.19581383017939));
#451=CARTESIAN_POINT('',(-19.,13.4160797830997,-1.60580714227703));
#452=CARTESIAN_POINT('',(-19.,13.4160797830997,1.60580714227703));
#453=CARTESIAN_POINT('',(-19.,13.4160797830997,-2.02775326779888E-016));
#454=CARTESIAN_POINT('',(0.,-6.93889390390723E-015,0.));
#455=CARTESIAN_POINT('',(0.,-6.93889390390723E-015,-18.3630681719536));
#456=CARTESIAN_POINT('',(0.,-5.20417042793042E-015,-18.3630681719536));
#457=CARTESIAN_POINT('',(36.7261363439072,-5.20417042793042E-015,-18.3630681719536));
#458=CARTESIAN_POINT('',(36.7261363439072,-5.20417042793042E-015,18.3630681719536));
#459=CARTESIAN_POINT('',(0.,-5.20417042793042E-015,18.3630681719536));
#460=CARTESIAN_POINT('',(-36.7261363439072,-5.20417042793042E-015,18.3630681719536));
#461=CARTESIAN_POINT('',(-36.7261363439072,-5.20417042793042E-015,-18.3630681719536));
#462=CARTESIAN_POINT('',(0.,-5.20417042793042E-015,-18.3630681719536));
#463=CARTESIAN_POINT('',(0.,4.83865005833003,-20.5808597900119));
#464=CARTESIAN_POINT('',(41.1617195800238,4.83865005833003,-20.5808597900119));
#465=CARTESIAN_POINT('',(41.1617195800238,4.83865005833003,20.5808597900119));
#466=CARTESIAN_POINT('',(0.,4.83865005833003,20.5808597900119));
#467=CARTESIAN_POINT('',(-41.1617195800238,4.83865005833003,20.5808597900119));
#468=CARTESIAN_POINT('',(-41.1617195800238,4.83865005833003,-20.5808597900119));
#469=CARTESIAN_POINT('',(0.,4.83865005833003,-20.5808597900119));
#470=CARTESIAN_POINT('',(0.,10.16134994167,-20.5808597900119));
#471=CARTESIAN_POINT('',(41.1617195800238,10.16134994167,-20.5808597900119));
#472=CARTESIAN_POINT('',(41.1617195800238,10.16134994167,20.5808597900119));
#473=CARTESIAN_POINT('',(0.,10.16134994167,20.5808597900119));
#474=CARTESIAN_POINT('',(-41.1617195800238,10.16134994167,20.5808597900119));
#475=CARTESIAN_POINT('',(-41.1617195800238,10.16134994167,-20.5808597900119));
#476=CARTESIAN_POINT('',(0.,10.16134994167,-20.5808597900119));
#477=CARTESIAN_POINT('',(0.,15.,-18.3630681719536));
#478=CARTESIAN_POINT('',(36.7261363439072,15.,-18.3630681719536));
#479=CARTESIAN_POINT('',(36.7261363439072,15.,18.3630681719536));
#480=CARTESIAN_POINT('',(0.,15.,18.3630681719536));
#481=CARTESIAN_POINT('',(-36.7261363439072,15.,18.3630681719536));
#482=CARTESIAN_POINT('',(-36.7261363439072,15.,-18.3630681719536));
#483=CARTESIAN_POINT('',(0.,15.,-18.3630681719536));
#484=CARTESIAN_POINT('',(-4.33680868994202E-016,1.88737914186277E-015,0.));
#485=CARTESIAN_POINT('',(-4.33680868994202E-016,1.88737914186277E-015,15.25));
#486=CARTESIAN_POINT('',(18.3630681719536,-3.44169137633799E-015,0.));
#487=CARTESIAN_POINT('',(-19.,15.,50.));
#488=CARTESIAN_POINT('',(33.8012701892219,15.,41.4544826719043));
#489=CARTESIAN_POINT('',(52.8012701892219,15.,-8.54551732809565));
#490=CARTESIAN_POINT('',(19.,15.,-50.));
#491=CARTESIAN_POINT('',(-33.8012701892219,15.,-41.4544826719044));
#492=CARTESIAN_POINT('',(-52.8012701892219,15.,8.54551732809562));
#493=CARTESIAN_POINT('',(-4.33680868994202E-016,12.,0.));
#494=CARTESIAN_POINT('',(-4.33680868994202E-016,12.,15.25));
#495=CARTESIAN_POINT('',(-4.33680868994202E-016,12.,0.));
#496=CARTESIAN_POINT('',(-4.33680868994202E-016,1.88737914186277E-015,0.));
#497=(
GEOMETRIC_REPRESENTATION_CONTEXT(3)
GLOBAL_UNCERTAINTY_ASSIGNED_CONTEXT((#498))
GLOBAL_UNIT_ASSIGNED_CONTEXT((#504,#500,#499))
REPRESENTATION_CONTEXT('METU_E01V-4003_KST_1','TOP_LEVEL_ASSEMBLY_PART')
);
#498=UNCERTAINTY_MEASURE_WITH_UNIT(LENGTH_MEASURE(0.0508),#504,
'DISTANCE_ACCURACY_VALUE','Maximum Tolerance applied to model');
#499=(
NAMED_UNIT(*)
SI_UNIT($,.STERADIAN.)
SOLID_ANGLE_UNIT()
);
#500=(
CONVERSION_BASED_UNIT('DEGREE',#502)
NAMED_UNIT(#501)
PLANE_ANGLE_UNIT()
);
#501=DIMENSIONAL_EXPONENTS(0.,0.,0.,0.,0.,0.,0.);
#502=PLANE_ANGLE_MEASURE_WITH_UNIT(PLANE_ANGLE_MEASURE(0.0174532925),#503);
#503=(
NAMED_UNIT(*)
PLANE_ANGLE_UNIT()
SI_UNIT($,.RADIAN.)
);
#504=(
LENGTH_UNIT()
NAMED_UNIT(*)
SI_UNIT(.MILLI.,.METRE.)
);
ENDSEC;
END-ISO-10303-21;
