ISO-10303-21;
HEADER;
/* Generated by software containing ST-Developer
 * from STEP Tools, Inc. (www.steptools.com) 
 */
/* OPTION: using custom schema-name function */

FILE_DESCRIPTION(
/* description */ (''),
/* implementation_level */ '2;1');

FILE_NAME(
/* name */ 'METU_E01V-2001_ST-K_1-2.stp',
/* time_stamp */ '2018-10-05T14:35:38+02:00',
/* author */ (''),
/* organization */ (''),
/* preprocessor_version */ 'ST-DEVELOPER v11',
/* originating_system */ 'SIEMENS UGS NX 6.0',
/* authorisation */ '');

FILE_SCHEMA (('CONFIG_CONTROL_DESIGN'));
ENDSEC;

DATA;
#10=SHAPE_REPRESENTATION_RELATIONSHIP('None',
'relationship between gars64E343c8-None and gars64E343c8-None',#94,#11);
#11=ADVANCED_BREP_SHAPE_REPRESENTATION('gars64E343c8-None',(#137,#138,#139),
#573);
#12=CC_DESIGN_APPROVAL(#24,(#82));
#13=CC_DESIGN_APPROVAL(#25,(#84));
#14=CC_DESIGN_APPROVAL(#26,(#31));
#15=APPROVAL_PERSON_ORGANIZATION(#69,#24,#18);
#16=APPROVAL_PERSON_ORGANIZATION(#70,#25,#19);
#17=APPROVAL_PERSON_ORGANIZATION(#71,#26,#20);
#18=APPROVAL_ROLE('approver');
#19=APPROVAL_ROLE('approver');
#20=APPROVAL_ROLE('approver');
#21=APPROVAL_DATE_TIME(#39,#24);
#22=APPROVAL_DATE_TIME(#40,#25);
#23=APPROVAL_DATE_TIME(#41,#26);
#24=APPROVAL(#27,' ');
#25=APPROVAL(#28,' ');
#26=APPROVAL(#29,' ');
#27=APPROVAL_STATUS('not_yet_approved');
#28=APPROVAL_STATUS('not_yet_approved');
#29=APPROVAL_STATUS('not_yet_approved');
#30=CC_DESIGN_SECURITY_CLASSIFICATION(#31,(#84));
#31=SECURITY_CLASSIFICATION(' ',' ',#32);
#32=SECURITY_CLASSIFICATION_LEVEL('confidential');
#33=CC_DESIGN_DATE_AND_TIME_ASSIGNMENT(#37,#35,(#82));
#34=CC_DESIGN_DATE_AND_TIME_ASSIGNMENT(#38,#36,(#31));
#35=DATE_TIME_ROLE('creation_date');
#36=DATE_TIME_ROLE('classification_date');
#37=DATE_AND_TIME(#52,#42);
#38=DATE_AND_TIME(#53,#43);
#39=DATE_AND_TIME(#54,#44);
#40=DATE_AND_TIME(#55,#45);
#41=DATE_AND_TIME(#56,#46);
#42=LOCAL_TIME(0,0,0.,#47);
#43=LOCAL_TIME(0,0,0.,#48);
#44=LOCAL_TIME(0,0,0.,#49);
#45=LOCAL_TIME(0,0,0.,#50);
#46=LOCAL_TIME(0,0,0.,#51);
#47=COORDINATED_UNIVERSAL_TIME_OFFSET(0,0,.BEHIND.);
#48=COORDINATED_UNIVERSAL_TIME_OFFSET(0,0,.BEHIND.);
#49=COORDINATED_UNIVERSAL_TIME_OFFSET(0,0,.BEHIND.);
#50=COORDINATED_UNIVERSAL_TIME_OFFSET(0,0,.BEHIND.);
#51=COORDINATED_UNIVERSAL_TIME_OFFSET(0,0,.BEHIND.);
#52=CALENDAR_DATE(0,1,1);
#53=CALENDAR_DATE(0,1,1);
#54=CALENDAR_DATE(0,1,1);
#55=CALENDAR_DATE(0,1,1);
#56=CALENDAR_DATE(0,1,1);
#57=CC_DESIGN_PERSON_AND_ORGANIZATION_ASSIGNMENT(#65,#61,(#82,#84));
#58=CC_DESIGN_PERSON_AND_ORGANIZATION_ASSIGNMENT(#66,#62,(#86));
#59=CC_DESIGN_PERSON_AND_ORGANIZATION_ASSIGNMENT(#67,#63,(#84));
#60=CC_DESIGN_PERSON_AND_ORGANIZATION_ASSIGNMENT(#68,#64,(#31));
#61=PERSON_AND_ORGANIZATION_ROLE('creator');
#62=PERSON_AND_ORGANIZATION_ROLE('design_owner');
#63=PERSON_AND_ORGANIZATION_ROLE('design_supplier');
#64=PERSON_AND_ORGANIZATION_ROLE('classification_officer');
#65=PERSON_AND_ORGANIZATION(#79,#72);
#66=PERSON_AND_ORGANIZATION(#79,#73);
#67=PERSON_AND_ORGANIZATION(#79,#74);
#68=PERSON_AND_ORGANIZATION(#79,#75);
#69=PERSON_AND_ORGANIZATION(#79,#76);
#70=PERSON_AND_ORGANIZATION(#79,#77);
#71=PERSON_AND_ORGANIZATION(#79,#78);
#72=ORGANIZATION(' ',' ',' ');
#73=ORGANIZATION(' ',' ',' ');
#74=ORGANIZATION(' ',' ',' ');
#75=ORGANIZATION(' ',' ',' ');
#76=ORGANIZATION(' ',' ',' ');
#77=ORGANIZATION(' ',' ',' ');
#78=ORGANIZATION(' ',' ',' ');
#79=PERSON(' ',' ',' ',(' '),$,$);
#80=SHAPE_DEFINITION_REPRESENTATION(#81,#94);
#81=PRODUCT_DEFINITION_SHAPE('','',#82);
#82=PRODUCT_DEFINITION(' ','',#84,#83);
#83=DESIGN_CONTEXT('',#93,'design');
#84=PRODUCT_DEFINITION_FORMATION_WITH_SPECIFIED_SOURCE(' ',' ',#86,.NOT_KNOWN.);
#85=PRODUCT_RELATED_PRODUCT_CATEGORY('detail','',(#86));
#86=PRODUCT('gars64E343c8','gars64E343c8',' ',(#91));
#87=PRODUCT_CATEGORY_RELATIONSHIP(' ',' ',#89,#90);
#88=PRODUCT_CATEGORY_RELATIONSHIP('','',#90,#85);
#89=PRODUCT_CATEGORY('part',' ');
#90=PRODUCT_CATEGORY(' ','');
#91=MECHANICAL_CONTEXT(' ',#93,'mechanical');
#92=APPLICATION_PROTOCOL_DEFINITION('international standard',
'config_control_design',1994,#93);
#93=APPLICATION_CONTEXT(
'configuration controlled 3D designs of mechanical parts and assemblies');
#94=SHAPE_REPRESENTATION('gars64E343c8-None',(#376),#573);
#95=FACE_OUTER_BOUND('',#227,.T.);
#96=FACE_OUTER_BOUND('',#228,.T.);
#97=FACE_OUTER_BOUND('',#229,.T.);
#98=FACE_OUTER_BOUND('',#230,.T.);
#99=FACE_OUTER_BOUND('',#231,.T.);
#100=FACE_OUTER_BOUND('',#232,.T.);
#101=LINE('',#514,#119);
#102=LINE('',#517,#120);
#103=LINE('',#519,#121);
#104=LINE('',#521,#122);
#105=LINE('',#523,#123);
#106=LINE('',#525,#124);
#107=LINE('',#529,#125);
#108=LINE('',#532,#126);
#109=LINE('',#534,#127);
#110=LINE('',#536,#128);
#111=LINE('',#538,#129);
#112=LINE('',#540,#130);
#113=LINE('',#543,#131);
#114=LINE('',#544,#132);
#115=LINE('',#546,#133);
#116=LINE('',#548,#134);
#117=LINE('',#550,#135);
#118=LINE('',#552,#136);
#119=VECTOR('',#434,1.);
#120=VECTOR('',#435,1.);
#121=VECTOR('',#436,1.);
#122=VECTOR('',#437,1.);
#123=VECTOR('',#438,1.);
#124=VECTOR('',#439,1.);
#125=VECTOR('',#444,1.);
#126=VECTOR('',#445,1.);
#127=VECTOR('',#446,1.);
#128=VECTOR('',#447,1.);
#129=VECTOR('',#448,1.);
#130=VECTOR('',#449,1.);
#131=VECTOR('',#454,1.);
#132=VECTOR('',#455,1.);
#133=VECTOR('',#458,1.);
#134=VECTOR('',#461,1.);
#135=VECTOR('',#464,1.);
#136=VECTOR('',#467,1.);
#137=MANIFOLD_SOLID_BREP('',#140);
#138=MANIFOLD_SOLID_BREP('',#141);
#139=MANIFOLD_SOLID_BREP('',#142);
#140=CLOSED_SHELL('',(#151,#152,#153,#154,#155));
#141=CLOSED_SHELL('',(#156,#157,#158,#159,#160,#161,#162,#163,#164));
#142=CLOSED_SHELL('',(#165,#166,#167,#168,#169,#170));
#143=CYLINDRICAL_SURFACE('',#383,11.5);
#144=CYLINDRICAL_SURFACE('',#386,20.);
#145=CYLINDRICAL_SURFACE('',#391,9.45);
#146=CYLINDRICAL_SURFACE('',#407,10.48);
#147=CYLINDRICAL_SURFACE('',#408,15.);
#148=CYLINDRICAL_SURFACE('',#409,7.5);
#149=CONICAL_SURFACE('',#381,19.,60.);
#150=CONICAL_SURFACE('',#400,15.,70.);
#151=ADVANCED_FACE('',(#183,#184),#171,.T.);
#152=ADVANCED_FACE('',(#185,#186),#149,.F.);
#153=ADVANCED_FACE('',(#187,#188),#143,.F.);
#154=ADVANCED_FACE('',(#189,#190),#172,.T.);
#155=ADVANCED_FACE('',(#191,#192),#144,.T.);
#156=ADVANCED_FACE('',(#193,#194),#173,.T.);
#157=ADVANCED_FACE('',(#195,#196),#174,.T.);
#158=ADVANCED_FACE('',(#197,#198),#145,.F.);
#159=ADVANCED_FACE('',(#95),#175,.F.);
#160=ADVANCED_FACE('',(#96),#176,.F.);
#161=ADVANCED_FACE('',(#97),#177,.F.);
#162=ADVANCED_FACE('',(#98),#178,.F.);
#163=ADVANCED_FACE('',(#99),#179,.F.);
#164=ADVANCED_FACE('',(#100),#180,.F.);
#165=ADVANCED_FACE('',(#199,#200),#150,.T.);
#166=ADVANCED_FACE('',(#201,#202),#181,.T.);
#167=ADVANCED_FACE('',(#203,#204),#182,.T.);
#168=ADVANCED_FACE('',(#205,#206),#146,.T.);
#169=ADVANCED_FACE('',(#207,#208),#147,.T.);
#170=ADVANCED_FACE('',(#209,#210),#148,.F.);
#171=PLANE('',#379);
#172=PLANE('',#385);
#173=PLANE('',#388);
#174=PLANE('',#390);
#175=PLANE('',#392);
#176=PLANE('',#393);
#177=PLANE('',#394);
#178=PLANE('',#395);
#179=PLANE('',#396);
#180=PLANE('',#397);
#181=PLANE('',#403);
#182=PLANE('',#406);
#183=FACE_BOUND('',#211,.T.);
#184=FACE_BOUND('',#212,.T.);
#185=FACE_BOUND('',#213,.T.);
#186=FACE_BOUND('',#214,.T.);
#187=FACE_BOUND('',#215,.T.);
#188=FACE_BOUND('',#216,.T.);
#189=FACE_BOUND('',#217,.T.);
#190=FACE_BOUND('',#218,.T.);
#191=FACE_BOUND('',#219,.T.);
#192=FACE_BOUND('',#220,.T.);
#193=FACE_BOUND('',#221,.T.);
#194=FACE_BOUND('',#222,.T.);
#195=FACE_BOUND('',#223,.T.);
#196=FACE_BOUND('',#224,.T.);
#197=FACE_BOUND('',#225,.T.);
#198=FACE_BOUND('',#226,.T.);
#199=FACE_BOUND('',#233,.T.);
#200=FACE_BOUND('',#234,.T.);
#201=FACE_BOUND('',#235,.T.);
#202=FACE_BOUND('',#236,.T.);
#203=FACE_BOUND('',#237,.T.);
#204=FACE_BOUND('',#238,.T.);
#205=FACE_BOUND('',#239,.T.);
#206=FACE_BOUND('',#240,.T.);
#207=FACE_BOUND('',#241,.T.);
#208=FACE_BOUND('',#242,.T.);
#209=FACE_BOUND('',#243,.T.);
#210=FACE_BOUND('',#244,.T.);
#211=EDGE_LOOP('',(#245));
#212=EDGE_LOOP('',(#246));
#213=EDGE_LOOP('',(#247));
#214=EDGE_LOOP('',(#248));
#215=EDGE_LOOP('',(#249));
#216=EDGE_LOOP('',(#250));
#217=EDGE_LOOP('',(#251));
#218=EDGE_LOOP('',(#252));
#219=EDGE_LOOP('',(#253));
#220=EDGE_LOOP('',(#254));
#221=EDGE_LOOP('',(#255));
#222=EDGE_LOOP('',(#256,#257,#258,#259,#260,#261));
#223=EDGE_LOOP('',(#262));
#224=EDGE_LOOP('',(#263,#264,#265,#266,#267,#268));
#225=EDGE_LOOP('',(#269));
#226=EDGE_LOOP('',(#270));
#227=EDGE_LOOP('',(#271,#272,#273,#274));
#228=EDGE_LOOP('',(#275,#276,#277,#278));
#229=EDGE_LOOP('',(#279,#280,#281,#282));
#230=EDGE_LOOP('',(#283,#284,#285,#286));
#231=EDGE_LOOP('',(#287,#288,#289,#290));
#232=EDGE_LOOP('',(#291,#292,#293,#294));
#233=EDGE_LOOP('',(#295));
#234=EDGE_LOOP('',(#296));
#235=EDGE_LOOP('',(#297));
#236=EDGE_LOOP('',(#298));
#237=EDGE_LOOP('',(#299));
#238=EDGE_LOOP('',(#300));
#239=EDGE_LOOP('',(#301));
#240=EDGE_LOOP('',(#302));
#241=EDGE_LOOP('',(#303));
#242=EDGE_LOOP('',(#304));
#243=EDGE_LOOP('',(#305));
#244=EDGE_LOOP('',(#306));
#245=ORIENTED_EDGE('',*,*,#332,.T.);
#246=ORIENTED_EDGE('',*,*,#333,.F.);
#247=ORIENTED_EDGE('',*,*,#334,.T.);
#248=ORIENTED_EDGE('',*,*,#332,.F.);
#249=ORIENTED_EDGE('',*,*,#335,.T.);
#250=ORIENTED_EDGE('',*,*,#334,.F.);
#251=ORIENTED_EDGE('',*,*,#336,.T.);
#252=ORIENTED_EDGE('',*,*,#335,.F.);
#253=ORIENTED_EDGE('',*,*,#333,.T.);
#254=ORIENTED_EDGE('',*,*,#336,.F.);
#255=ORIENTED_EDGE('',*,*,#337,.F.);
#256=ORIENTED_EDGE('',*,*,#338,.F.);
#257=ORIENTED_EDGE('',*,*,#339,.T.);
#258=ORIENTED_EDGE('',*,*,#340,.T.);
#259=ORIENTED_EDGE('',*,*,#341,.T.);
#260=ORIENTED_EDGE('',*,*,#342,.T.);
#261=ORIENTED_EDGE('',*,*,#343,.T.);
#262=ORIENTED_EDGE('',*,*,#344,.F.);
#263=ORIENTED_EDGE('',*,*,#345,.F.);
#264=ORIENTED_EDGE('',*,*,#346,.F.);
#265=ORIENTED_EDGE('',*,*,#347,.F.);
#266=ORIENTED_EDGE('',*,*,#348,.F.);
#267=ORIENTED_EDGE('',*,*,#349,.F.);
#268=ORIENTED_EDGE('',*,*,#350,.F.);
#269=ORIENTED_EDGE('',*,*,#337,.T.);
#270=ORIENTED_EDGE('',*,*,#344,.T.);
#271=ORIENTED_EDGE('',*,*,#339,.F.);
#272=ORIENTED_EDGE('',*,*,#351,.T.);
#273=ORIENTED_EDGE('',*,*,#350,.T.);
#274=ORIENTED_EDGE('',*,*,#352,.T.);
#275=ORIENTED_EDGE('',*,*,#349,.T.);
#276=ORIENTED_EDGE('',*,*,#353,.T.);
#277=ORIENTED_EDGE('',*,*,#340,.F.);
#278=ORIENTED_EDGE('',*,*,#352,.F.);
#279=ORIENTED_EDGE('',*,*,#348,.T.);
#280=ORIENTED_EDGE('',*,*,#354,.T.);
#281=ORIENTED_EDGE('',*,*,#341,.F.);
#282=ORIENTED_EDGE('',*,*,#353,.F.);
#283=ORIENTED_EDGE('',*,*,#347,.T.);
#284=ORIENTED_EDGE('',*,*,#355,.T.);
#285=ORIENTED_EDGE('',*,*,#342,.F.);
#286=ORIENTED_EDGE('',*,*,#354,.F.);
#287=ORIENTED_EDGE('',*,*,#346,.T.);
#288=ORIENTED_EDGE('',*,*,#356,.T.);
#289=ORIENTED_EDGE('',*,*,#343,.F.);
#290=ORIENTED_EDGE('',*,*,#355,.F.);
#291=ORIENTED_EDGE('',*,*,#351,.F.);
#292=ORIENTED_EDGE('',*,*,#338,.T.);
#293=ORIENTED_EDGE('',*,*,#356,.F.);
#294=ORIENTED_EDGE('',*,*,#345,.T.);
#295=ORIENTED_EDGE('',*,*,#357,.F.);
#296=ORIENTED_EDGE('',*,*,#358,.T.);
#297=ORIENTED_EDGE('',*,*,#359,.F.);
#298=ORIENTED_EDGE('',*,*,#360,.T.);
#299=ORIENTED_EDGE('',*,*,#361,.T.);
#300=ORIENTED_EDGE('',*,*,#362,.T.);
#301=ORIENTED_EDGE('',*,*,#359,.T.);
#302=ORIENTED_EDGE('',*,*,#358,.F.);
#303=ORIENTED_EDGE('',*,*,#361,.F.);
#304=ORIENTED_EDGE('',*,*,#357,.T.);
#305=ORIENTED_EDGE('',*,*,#362,.F.);
#306=ORIENTED_EDGE('',*,*,#360,.F.);
#307=VERTEX_POINT('',#498);
#308=VERTEX_POINT('',#500);
#309=VERTEX_POINT('',#503);
#310=VERTEX_POINT('',#506);
#311=VERTEX_POINT('',#509);
#312=VERTEX_POINT('',#513);
#313=VERTEX_POINT('',#515);
#314=VERTEX_POINT('',#516);
#315=VERTEX_POINT('',#518);
#316=VERTEX_POINT('',#520);
#317=VERTEX_POINT('',#522);
#318=VERTEX_POINT('',#524);
#319=VERTEX_POINT('',#528);
#320=VERTEX_POINT('',#530);
#321=VERTEX_POINT('',#531);
#322=VERTEX_POINT('',#533);
#323=VERTEX_POINT('',#535);
#324=VERTEX_POINT('',#537);
#325=VERTEX_POINT('',#539);
#326=VERTEX_POINT('',#556);
#327=VERTEX_POINT('',#558);
#328=VERTEX_POINT('',#561);
#329=VERTEX_POINT('',#563);
#330=VERTEX_POINT('',#566);
#331=VERTEX_POINT('',#568);
#332=EDGE_CURVE('',#307,#307,#363,.T.);
#333=EDGE_CURVE('',#308,#308,#364,.T.);
#334=EDGE_CURVE('',#309,#309,#365,.T.);
#335=EDGE_CURVE('',#310,#310,#366,.T.);
#336=EDGE_CURVE('',#311,#311,#367,.T.);
#337=EDGE_CURVE('',#312,#312,#368,.T.);
#338=EDGE_CURVE('',#313,#314,#101,.T.);
#339=EDGE_CURVE('',#313,#315,#102,.T.);
#340=EDGE_CURVE('',#315,#316,#103,.T.);
#341=EDGE_CURVE('',#316,#317,#104,.T.);
#342=EDGE_CURVE('',#317,#318,#105,.T.);
#343=EDGE_CURVE('',#318,#314,#106,.T.);
#344=EDGE_CURVE('',#319,#319,#369,.T.);
#345=EDGE_CURVE('',#320,#321,#107,.T.);
#346=EDGE_CURVE('',#322,#320,#108,.T.);
#347=EDGE_CURVE('',#323,#322,#109,.T.);
#348=EDGE_CURVE('',#324,#323,#110,.T.);
#349=EDGE_CURVE('',#325,#324,#111,.T.);
#350=EDGE_CURVE('',#321,#325,#112,.T.);
#351=EDGE_CURVE('',#313,#321,#113,.T.);
#352=EDGE_CURVE('',#325,#315,#114,.T.);
#353=EDGE_CURVE('',#324,#316,#115,.T.);
#354=EDGE_CURVE('',#323,#317,#116,.T.);
#355=EDGE_CURVE('',#322,#318,#117,.T.);
#356=EDGE_CURVE('',#320,#314,#118,.T.);
#357=EDGE_CURVE('',#326,#326,#370,.T.);
#358=EDGE_CURVE('',#327,#327,#371,.T.);
#359=EDGE_CURVE('',#328,#328,#372,.T.);
#360=EDGE_CURVE('',#329,#329,#373,.T.);
#361=EDGE_CURVE('',#330,#330,#374,.T.);
#362=EDGE_CURVE('',#331,#331,#375,.T.);
#363=CIRCLE('',#377,19.);
#364=CIRCLE('',#378,20.);
#365=CIRCLE('',#380,11.5);
#366=CIRCLE('',#382,11.5);
#367=CIRCLE('',#384,20.);
#368=CIRCLE('',#387,9.45);
#369=CIRCLE('',#389,9.45);
#370=CIRCLE('',#398,15.);
#371=CIRCLE('',#399,10.48);
#372=CIRCLE('',#401,10.48);
#373=CIRCLE('',#402,7.5);
#374=CIRCLE('',#404,15.);
#375=CIRCLE('',#405,7.5);
#376=AXIS2_PLACEMENT_3D('',#496,#410,#411);
#377=AXIS2_PLACEMENT_3D('',#497,#412,#413);
#378=AXIS2_PLACEMENT_3D('',#499,#414,#415);
#379=AXIS2_PLACEMENT_3D('',#501,#416,#417);
#380=AXIS2_PLACEMENT_3D('',#502,#418,#419);
#381=AXIS2_PLACEMENT_3D('',#504,#420,#421);
#382=AXIS2_PLACEMENT_3D('',#505,#422,#423);
#383=AXIS2_PLACEMENT_3D('',#507,#424,#425);
#384=AXIS2_PLACEMENT_3D('',#508,#426,#427);
#385=AXIS2_PLACEMENT_3D('',#510,#428,#429);
#386=AXIS2_PLACEMENT_3D('',#511,#430,#431);
#387=AXIS2_PLACEMENT_3D('',#512,#432,#433);
#388=AXIS2_PLACEMENT_3D('',#526,#440,#441);
#389=AXIS2_PLACEMENT_3D('',#527,#442,#443);
#390=AXIS2_PLACEMENT_3D('',#541,#450,#451);
#391=AXIS2_PLACEMENT_3D('',#542,#452,#453);
#392=AXIS2_PLACEMENT_3D('',#545,#456,#457);
#393=AXIS2_PLACEMENT_3D('',#547,#459,#460);
#394=AXIS2_PLACEMENT_3D('',#549,#462,#463);
#395=AXIS2_PLACEMENT_3D('',#551,#465,#466);
#396=AXIS2_PLACEMENT_3D('',#553,#468,#469);
#397=AXIS2_PLACEMENT_3D('',#554,#470,#471);
#398=AXIS2_PLACEMENT_3D('',#555,#472,#473);
#399=AXIS2_PLACEMENT_3D('',#557,#474,#475);
#400=AXIS2_PLACEMENT_3D('',#559,#476,#477);
#401=AXIS2_PLACEMENT_3D('',#560,#478,#479);
#402=AXIS2_PLACEMENT_3D('',#562,#480,#481);
#403=AXIS2_PLACEMENT_3D('',#564,#482,#483);
#404=AXIS2_PLACEMENT_3D('',#565,#484,#485);
#405=AXIS2_PLACEMENT_3D('',#567,#486,#487);
#406=AXIS2_PLACEMENT_3D('',#569,#488,#489);
#407=AXIS2_PLACEMENT_3D('',#570,#490,#491);
#408=AXIS2_PLACEMENT_3D('',#571,#492,#493);
#409=AXIS2_PLACEMENT_3D('',#572,#494,#495);
#410=DIRECTION('',(0.,0.,1.));
#411=DIRECTION('',(1.,0.,0.));
#412=DIRECTION('',(0.,1.,0.));
#413=DIRECTION('',(0.,0.,1.));
#414=DIRECTION('',(0.,1.,0.));
#415=DIRECTION('',(0.,0.,1.));
#416=DIRECTION('',(0.,-1.,0.));
#417=DIRECTION('',(0.,0.,-1.));
#418=DIRECTION('',(0.,1.,0.));
#419=DIRECTION('',(0.,0.,1.));
#420=DIRECTION('',(0.,-1.,0.));
#421=DIRECTION('',(0.,0.,-1.));
#422=DIRECTION('',(0.,1.,0.));
#423=DIRECTION('',(0.,0.,1.));
#424=DIRECTION('',(0.,1.,0.));
#425=DIRECTION('',(0.,0.,1.));
#426=DIRECTION('',(0.,1.,0.));
#427=DIRECTION('',(0.,0.,1.));
#428=DIRECTION('',(0.,1.,0.));
#429=DIRECTION('',(0.,0.,1.));
#430=DIRECTION('',(0.,1.,0.));
#431=DIRECTION('',(0.,0.,1.));
#432=DIRECTION('',(0.,1.,0.));
#433=DIRECTION('',(-0.866025403784439,0.,-0.5));
#434=DIRECTION('',(4.44089209850063E-016,0.,-1.));
#435=DIRECTION('',(0.866025403784439,0.,0.5));
#436=DIRECTION('',(0.866025403784439,0.,-0.5));
#437=DIRECTION('',(0.,0.,-1.));
#438=DIRECTION('',(-0.866025403784439,0.,-0.5));
#439=DIRECTION('',(-0.866025403784439,0.,0.5));
#440=DIRECTION('',(0.,1.,0.));
#441=DIRECTION('',(-0.866025403784439,0.,-0.5));
#442=DIRECTION('',(0.,-1.,0.));
#443=DIRECTION('',(0.866025403784439,0.,0.5));
#444=DIRECTION('',(-4.44089209850063E-016,0.,1.));
#445=DIRECTION('',(-0.866025403784439,0.,0.5));
#446=DIRECTION('',(-0.866025403784439,0.,-0.5));
#447=DIRECTION('',(0.,0.,-1.));
#448=DIRECTION('',(0.866025403784439,0.,-0.5));
#449=DIRECTION('',(0.866025403784439,0.,0.5));
#450=DIRECTION('',(0.,-1.,0.));
#451=DIRECTION('',(0.866025403784439,0.,0.5));
#452=DIRECTION('',(0.,-1.,0.));
#453=DIRECTION('',(0.866025403784439,0.,0.5));
#454=DIRECTION('',(0.,-1.,0.));
#455=DIRECTION('',(0.,1.,0.));
#456=DIRECTION('',(0.5,0.,-0.866025403784439));
#457=DIRECTION('',(-0.866025403784439,0.,-0.5));
#458=DIRECTION('',(0.,1.,0.));
#459=DIRECTION('',(-0.5,0.,-0.866025403784439));
#460=DIRECTION('',(-0.866025403784439,0.,0.5));
#461=DIRECTION('',(0.,1.,0.));
#462=DIRECTION('',(-1.,0.,0.));
#463=DIRECTION('',(0.,0.,1.));
#464=DIRECTION('',(0.,1.,0.));
#465=DIRECTION('',(-0.5,0.,0.866025403784439));
#466=DIRECTION('',(0.866025403784439,0.,0.5));
#467=DIRECTION('',(0.,1.,0.));
#468=DIRECTION('',(0.5,0.,0.866025403784439));
#469=DIRECTION('',(0.866025403784439,0.,-0.5));
#470=DIRECTION('',(1.,0.,4.44089209850063E-016));
#471=DIRECTION('',(4.44089209850063E-016,0.,-1.));
#472=DIRECTION('',(0.,-1.,0.));
#473=DIRECTION('',(1.,0.,0.));
#474=DIRECTION('',(0.,-1.,0.));
#475=DIRECTION('',(-1.,0.,0.));
#476=DIRECTION('',(0.,-1.,0.));
#477=DIRECTION('',(-1.,1.99377088023898E-017,0.));
#478=DIRECTION('',(0.,-1.,0.));
#479=DIRECTION('',(-1.,0.,0.));
#480=DIRECTION('',(0.,-1.,0.));
#481=DIRECTION('',(1.,0.,0.));
#482=DIRECTION('',(0.,1.,0.));
#483=DIRECTION('',(1.,0.,0.));
#484=DIRECTION('',(0.,-1.,0.));
#485=DIRECTION('',(1.,0.,0.));
#486=DIRECTION('',(0.,1.,0.));
#487=DIRECTION('',(-1.,0.,0.));
#488=DIRECTION('',(0.,-1.,0.));
#489=DIRECTION('',(-1.,0.,0.));
#490=DIRECTION('',(0.,1.,0.));
#491=DIRECTION('',(1.,0.,0.));
#492=DIRECTION('',(0.,1.,0.));
#493=DIRECTION('',(1.,0.,0.));
#494=DIRECTION('',(0.,1.,0.));
#495=DIRECTION('',(1.,0.,0.));
#496=CARTESIAN_POINT('',(0.,0.,0.));
#497=CARTESIAN_POINT('',(0.,0.,0.));
#498=CARTESIAN_POINT('',(0.,0.,19.));
#499=CARTESIAN_POINT('',(0.,0.,0.));
#500=CARTESIAN_POINT('',(0.,0.,20.));
#501=CARTESIAN_POINT('',(20.,8.67361737988404E-016,0.));
#502=CARTESIAN_POINT('',(0.,4.3301270189222,0.));
#503=CARTESIAN_POINT('',(0.,4.3301270189222,11.5));
#504=CARTESIAN_POINT('',(0.,0.,0.));
#505=CARTESIAN_POINT('',(0.,5.,0.));
#506=CARTESIAN_POINT('',(0.,5.,11.5));
#507=CARTESIAN_POINT('',(0.,28.7105028832213,0.));
#508=CARTESIAN_POINT('',(0.,5.,0.));
#509=CARTESIAN_POINT('',(0.,5.,20.));
#510=CARTESIAN_POINT('',(11.5,5.,0.));
#511=CARTESIAN_POINT('',(0.,28.7105028832213,0.));
#512=CARTESIAN_POINT('',(0.,11.,0.));
#513=CARTESIAN_POINT('',(-8.18394006576295,11.,-4.725));
#514=CARTESIAN_POINT('',(-13.5,11.,-5.32037486655025E-015));
#515=CARTESIAN_POINT('',(-13.5,11.,7.79422863405995));
#516=CARTESIAN_POINT('',(-13.5,11.,-7.79422863405995));
#517=CARTESIAN_POINT('',(14.900635094611,11.,24.1913429510899));
#518=CARTESIAN_POINT('',(1.30104260698261E-015,11.,15.5884572681199));
#519=CARTESIAN_POINT('',(28.400635094611,11.,-0.808657048910079));
#520=CARTESIAN_POINT('',(13.5,11.,7.79422863405995));
#521=CARTESIAN_POINT('',(13.5,11.,-25.));
#522=CARTESIAN_POINT('',(13.5,11.,-7.79422863405995));
#523=CARTESIAN_POINT('',(-14.900635094611,11.,-24.1913429510899));
#524=CARTESIAN_POINT('',(8.23993651088983E-015,11.,-15.5884572681199));
#525=CARTESIAN_POINT('',(-28.400635094611,11.,0.808657048910072));
#526=CARTESIAN_POINT('',(-4.33680868994202E-016,11.,7.5115729936858E-016));
#527=CARTESIAN_POINT('',(0.,5.,0.));
#528=CARTESIAN_POINT('',(8.18394006576295,5.,4.725));
#529=CARTESIAN_POINT('',(-13.5,5.,-5.32037486655025E-015));
#530=CARTESIAN_POINT('',(-13.5,5.,-7.79422863405995));
#531=CARTESIAN_POINT('',(-13.5,5.,7.79422863405995));
#532=CARTESIAN_POINT('',(-6.75,5.,-11.6913429510899));
#533=CARTESIAN_POINT('',(7.37257477290143E-015,5.,-15.5884572681199));
#534=CARTESIAN_POINT('',(6.75,5.,-11.6913429510899));
#535=CARTESIAN_POINT('',(13.5,5.,-7.79422863405995));
#536=CARTESIAN_POINT('',(13.5,5.,1.61851903735698E-015));
#537=CARTESIAN_POINT('',(13.5,5.,7.79422863405995));
#538=CARTESIAN_POINT('',(6.75,5.,11.6913429510899));
#539=CARTESIAN_POINT('',(4.77048955893622E-015,5.,15.5884572681199));
#540=CARTESIAN_POINT('',(-6.75,5.,11.6913429510899));
#541=CARTESIAN_POINT('',(-4.33680868994202E-016,5.,7.5115729936858E-016));
#542=CARTESIAN_POINT('',(0.,11.,0.));
#543=CARTESIAN_POINT('',(-13.5,11.,7.79422863405995));
#544=CARTESIAN_POINT('',(4.77048955893622E-015,11.,15.5884572681199));
#545=CARTESIAN_POINT('',(14.900635094611,11.,24.1913429510899));
#546=CARTESIAN_POINT('',(13.5,11.,7.79422863405995));
#547=CARTESIAN_POINT('',(28.400635094611,11.,-0.808657048910079));
#548=CARTESIAN_POINT('',(13.5,11.,-7.79422863405995));
#549=CARTESIAN_POINT('',(13.5,11.,-25.));
#550=CARTESIAN_POINT('',(7.37257477290143E-015,11.,-15.5884572681199));
#551=CARTESIAN_POINT('',(-14.900635094611,11.,-24.1913429510899));
#552=CARTESIAN_POINT('',(-13.5,11.,-7.79422863405995));
#553=CARTESIAN_POINT('',(-28.400635094611,11.,0.808657048910072));
#554=CARTESIAN_POINT('',(-13.5,11.,25.));
#555=CARTESIAN_POINT('',(0.,0.500000000000001,0.));
#556=CARTESIAN_POINT('',(15.,0.500000000000001,0.));
#557=CARTESIAN_POINT('',(0.,2.14514545888323,0.));
#558=CARTESIAN_POINT('',(-10.48,2.14514545888323,0.));
#559=CARTESIAN_POINT('',(0.,0.500000000000001,0.));
#560=CARTESIAN_POINT('',(0.,28.,0.));
#561=CARTESIAN_POINT('',(-10.48,28.,0.));
#562=CARTESIAN_POINT('',(0.,28.,0.));
#563=CARTESIAN_POINT('',(7.5,28.,0.));
#564=CARTESIAN_POINT('',(0.,28.,0.));
#565=CARTESIAN_POINT('',(0.,8.67361737988404E-016,0.));
#566=CARTESIAN_POINT('',(15.,8.67361737988404E-016,0.));
#567=CARTESIAN_POINT('',(0.,8.67361737988404E-016,0.));
#568=CARTESIAN_POINT('',(-7.5,8.67361737988404E-016,0.));
#569=CARTESIAN_POINT('',(0.,8.67361737988404E-016,0.));
#570=CARTESIAN_POINT('',(0.,3.,0.));
#571=CARTESIAN_POINT('',(0.,8.67361737988404E-016,0.));
#572=CARTESIAN_POINT('',(0.,-1.73472347597681E-015,0.));
#573=(
GEOMETRIC_REPRESENTATION_CONTEXT(3)
GLOBAL_UNCERTAINTY_ASSIGNED_CONTEXT((#574))
GLOBAL_UNIT_ASSIGNED_CONTEXT((#580,#576,#575))
REPRESENTATION_CONTEXT('METU_E01V-2001_ST-K_1-2',
'TOP_LEVEL_ASSEMBLY_PART')
);
#574=UNCERTAINTY_MEASURE_WITH_UNIT(LENGTH_MEASURE(2.E-005),#580,
'DISTANCE_ACCURACY_VALUE','Maximum Tolerance applied to model');
#575=(
NAMED_UNIT(*)
SI_UNIT($,.STERADIAN.)
SOLID_ANGLE_UNIT()
);
#576=(
CONVERSION_BASED_UNIT('DEGREE',#578)
NAMED_UNIT(#577)
PLANE_ANGLE_UNIT()
);
#577=DIMENSIONAL_EXPONENTS(0.,0.,0.,0.,0.,0.,0.);
#578=PLANE_ANGLE_MEASURE_WITH_UNIT(PLANE_ANGLE_MEASURE(0.0174532925),#579);
#579=(
NAMED_UNIT(*)
PLANE_ANGLE_UNIT()
SI_UNIT($,.RADIAN.)
);
#580=(
LENGTH_UNIT()
NAMED_UNIT(*)
SI_UNIT(.MILLI.,.METRE.)
);
ENDSEC;
END-ISO-10303-21;
