ISO-10303-21;
HEADER;
/* Generated by software containing ST-Developer
 * from STEP Tools, Inc. (www.steptools.com) 
 */
/* OPTION: using custom schema-name function */

FILE_DESCRIPTION(
/* description */ (''),
/* implementation_level */ '2;1');

FILE_NAME(
/* name */ 'METU_E01V-4002_KST_3-4.stp',
/* time_stamp */ '2018-10-08T09:39:19+02:00',
/* author */ (''),
/* organization */ (''),
/* preprocessor_version */ 'ST-DEVELOPER v11',
/* originating_system */ 'SIEMENS UGS NX 6.0',
/* authorisation */ '');

FILE_SCHEMA (('CONFIG_CONTROL_DESIGN'));
ENDSEC;

DATA;
#10=SHAPE_REPRESENTATION_RELATIONSHIP('None',
'relationship between garsFA349mu5-None and garsFA349mu5-None',#94,#11);
#11=ADVANCED_BREP_SHAPE_REPRESENTATION('garsFA349mu5-None',(#95,#96),#389);
#12=CC_DESIGN_APPROVAL(#24,(#82));
#13=CC_DESIGN_APPROVAL(#25,(#84));
#14=CC_DESIGN_APPROVAL(#26,(#31));
#15=APPROVAL_PERSON_ORGANIZATION(#69,#24,#18);
#16=APPROVAL_PERSON_ORGANIZATION(#70,#25,#19);
#17=APPROVAL_PERSON_ORGANIZATION(#71,#26,#20);
#18=APPROVAL_ROLE('approver');
#19=APPROVAL_ROLE('approver');
#20=APPROVAL_ROLE('approver');
#21=APPROVAL_DATE_TIME(#39,#24);
#22=APPROVAL_DATE_TIME(#40,#25);
#23=APPROVAL_DATE_TIME(#41,#26);
#24=APPROVAL(#27,' ');
#25=APPROVAL(#28,' ');
#26=APPROVAL(#29,' ');
#27=APPROVAL_STATUS('not_yet_approved');
#28=APPROVAL_STATUS('not_yet_approved');
#29=APPROVAL_STATUS('not_yet_approved');
#30=CC_DESIGN_SECURITY_CLASSIFICATION(#31,(#84));
#31=SECURITY_CLASSIFICATION(' ',' ',#32);
#32=SECURITY_CLASSIFICATION_LEVEL('confidential');
#33=CC_DESIGN_DATE_AND_TIME_ASSIGNMENT(#37,#35,(#82));
#34=CC_DESIGN_DATE_AND_TIME_ASSIGNMENT(#38,#36,(#31));
#35=DATE_TIME_ROLE('creation_date');
#36=DATE_TIME_ROLE('classification_date');
#37=DATE_AND_TIME(#52,#42);
#38=DATE_AND_TIME(#53,#43);
#39=DATE_AND_TIME(#54,#44);
#40=DATE_AND_TIME(#55,#45);
#41=DATE_AND_TIME(#56,#46);
#42=LOCAL_TIME(0,0,0.,#47);
#43=LOCAL_TIME(0,0,0.,#48);
#44=LOCAL_TIME(0,0,0.,#49);
#45=LOCAL_TIME(0,0,0.,#50);
#46=LOCAL_TIME(0,0,0.,#51);
#47=COORDINATED_UNIVERSAL_TIME_OFFSET(0,0,.BEHIND.);
#48=COORDINATED_UNIVERSAL_TIME_OFFSET(0,0,.BEHIND.);
#49=COORDINATED_UNIVERSAL_TIME_OFFSET(0,0,.BEHIND.);
#50=COORDINATED_UNIVERSAL_TIME_OFFSET(0,0,.BEHIND.);
#51=COORDINATED_UNIVERSAL_TIME_OFFSET(0,0,.BEHIND.);
#52=CALENDAR_DATE(0,1,1);
#53=CALENDAR_DATE(0,1,1);
#54=CALENDAR_DATE(0,1,1);
#55=CALENDAR_DATE(0,1,1);
#56=CALENDAR_DATE(0,1,1);
#57=CC_DESIGN_PERSON_AND_ORGANIZATION_ASSIGNMENT(#65,#61,(#82,#84));
#58=CC_DESIGN_PERSON_AND_ORGANIZATION_ASSIGNMENT(#66,#62,(#86));
#59=CC_DESIGN_PERSON_AND_ORGANIZATION_ASSIGNMENT(#67,#63,(#84));
#60=CC_DESIGN_PERSON_AND_ORGANIZATION_ASSIGNMENT(#68,#64,(#31));
#61=PERSON_AND_ORGANIZATION_ROLE('creator');
#62=PERSON_AND_ORGANIZATION_ROLE('design_owner');
#63=PERSON_AND_ORGANIZATION_ROLE('design_supplier');
#64=PERSON_AND_ORGANIZATION_ROLE('classification_officer');
#65=PERSON_AND_ORGANIZATION(#79,#72);
#66=PERSON_AND_ORGANIZATION(#79,#73);
#67=PERSON_AND_ORGANIZATION(#79,#74);
#68=PERSON_AND_ORGANIZATION(#79,#75);
#69=PERSON_AND_ORGANIZATION(#79,#76);
#70=PERSON_AND_ORGANIZATION(#79,#77);
#71=PERSON_AND_ORGANIZATION(#79,#78);
#72=ORGANIZATION(' ',' ',' ');
#73=ORGANIZATION(' ',' ',' ');
#74=ORGANIZATION(' ',' ',' ');
#75=ORGANIZATION(' ',' ',' ');
#76=ORGANIZATION(' ',' ',' ');
#77=ORGANIZATION(' ',' ',' ');
#78=ORGANIZATION(' ',' ',' ');
#79=PERSON(' ',' ',' ',(' '),$,$);
#80=SHAPE_DEFINITION_REPRESENTATION(#81,#94);
#81=PRODUCT_DEFINITION_SHAPE('','',#82);
#82=PRODUCT_DEFINITION(' ','',#84,#83);
#83=DESIGN_CONTEXT('',#93,'design');
#84=PRODUCT_DEFINITION_FORMATION_WITH_SPECIFIED_SOURCE(' ',' ',#86,.NOT_KNOWN.);
#85=PRODUCT_RELATED_PRODUCT_CATEGORY('detail','',(#86));
#86=PRODUCT('garsFA349mu5','garsFA349mu5',' ',(#91));
#87=PRODUCT_CATEGORY_RELATIONSHIP(' ',' ',#89,#90);
#88=PRODUCT_CATEGORY_RELATIONSHIP('','',#90,#85);
#89=PRODUCT_CATEGORY('part',' ');
#90=PRODUCT_CATEGORY(' ','');
#91=MECHANICAL_CONTEXT(' ',#93,'mechanical');
#92=APPLICATION_PROTOCOL_DEFINITION('international standard',
'config_control_design',1994,#93);
#93=APPLICATION_CONTEXT(
'configuration controlled 3D designs of mechanical parts and assemblies');
#94=SHAPE_REPRESENTATION('garsFA349mu5-None',(#255),#389);
#95=MANIFOLD_SOLID_BREP('',#97);
#96=MANIFOLD_SOLID_BREP('',#98);
#97=CLOSED_SHELL('',(#123,#124,#125,#126,#127,#128,#129,#130,#131,#132,#133));
#98=CLOSED_SHELL('',(#134,#135,#136,#137));
#99=CYLINDRICAL_SURFACE('',#276,12.2);
#100=CYLINDRICAL_SURFACE('',#283,12.);
#101=CYLINDRICAL_SURFACE('',#284,8.5);
#102=SPHERICAL_SURFACE('',#265,16.);
#103=FACE_BOUND('',#158,.T.);
#104=FACE_BOUND('',#159,.T.);
#105=FACE_BOUND('',#160,.T.);
#106=FACE_BOUND('',#161,.T.);
#107=FACE_BOUND('',#162,.T.);
#108=FACE_BOUND('',#163,.T.);
#109=FACE_BOUND('',#164,.T.);
#110=FACE_BOUND('',#165,.T.);
#111=FACE_BOUND('',#166,.T.);
#112=FACE_BOUND('',#167,.T.);
#113=FACE_BOUND('',#175,.T.);
#114=FACE_BOUND('',#176,.T.);
#115=FACE_BOUND('',#177,.T.);
#116=FACE_BOUND('',#178,.T.);
#117=FACE_BOUND('',#179,.T.);
#118=FACE_BOUND('',#180,.T.);
#119=FACE_BOUND('',#181,.T.);
#120=FACE_BOUND('',#182,.T.);
#121=FACE_BOUND('',#183,.T.);
#122=FACE_BOUND('',#184,.T.);
#123=ADVANCED_FACE('',(#149),#138,.F.);
#124=ADVANCED_FACE('',(#103,#104,#105,#106,#107,#108,#109,#110),#102,.T.);
#125=ADVANCED_FACE('',(#111,#112),#139,.F.);
#126=ADVANCED_FACE('',(#150),#140,.F.);
#127=ADVANCED_FACE('',(#151),#141,.F.);
#128=ADVANCED_FACE('',(#152),#142,.F.);
#129=ADVANCED_FACE('',(#153),#143,.F.);
#130=ADVANCED_FACE('',(#154),#144,.F.);
#131=ADVANCED_FACE('',(#155),#145,.F.);
#132=ADVANCED_FACE('',(#156),#146,.F.);
#133=ADVANCED_FACE('',(#113,#114),#99,.F.);
#134=ADVANCED_FACE('',(#115,#116),#147,.T.);
#135=ADVANCED_FACE('',(#117,#118),#148,.T.);
#136=ADVANCED_FACE('',(#119,#120),#100,.T.);
#137=ADVANCED_FACE('',(#121,#122),#101,.F.);
#138=PLANE('',#257);
#139=PLANE('',#267);
#140=PLANE('',#268);
#141=PLANE('',#269);
#142=PLANE('',#270);
#143=PLANE('',#271);
#144=PLANE('',#272);
#145=PLANE('',#273);
#146=PLANE('',#275);
#147=PLANE('',#279);
#148=PLANE('',#282);
#149=FACE_OUTER_BOUND('',#157,.T.);
#150=FACE_OUTER_BOUND('',#168,.T.);
#151=FACE_OUTER_BOUND('',#169,.T.);
#152=FACE_OUTER_BOUND('',#170,.T.);
#153=FACE_OUTER_BOUND('',#171,.T.);
#154=FACE_OUTER_BOUND('',#172,.T.);
#155=FACE_OUTER_BOUND('',#173,.T.);
#156=FACE_OUTER_BOUND('',#174,.T.);
#157=EDGE_LOOP('',(#185));
#158=EDGE_LOOP('',(#186));
#159=EDGE_LOOP('',(#187));
#160=EDGE_LOOP('',(#188));
#161=EDGE_LOOP('',(#189));
#162=EDGE_LOOP('',(#190));
#163=EDGE_LOOP('',(#191));
#164=EDGE_LOOP('',(#192));
#165=EDGE_LOOP('',(#193));
#166=EDGE_LOOP('',(#194));
#167=EDGE_LOOP('',(#195));
#168=EDGE_LOOP('',(#196));
#169=EDGE_LOOP('',(#197));
#170=EDGE_LOOP('',(#198));
#171=EDGE_LOOP('',(#199));
#172=EDGE_LOOP('',(#200));
#173=EDGE_LOOP('',(#201));
#174=EDGE_LOOP('',(#202));
#175=EDGE_LOOP('',(#203));
#176=EDGE_LOOP('',(#204));
#177=EDGE_LOOP('',(#205));
#178=EDGE_LOOP('',(#206));
#179=EDGE_LOOP('',(#207));
#180=EDGE_LOOP('',(#208));
#181=EDGE_LOOP('',(#209));
#182=EDGE_LOOP('',(#210));
#183=EDGE_LOOP('',(#211));
#184=EDGE_LOOP('',(#212));
#185=ORIENTED_EDGE('',*,*,#227,.F.);
#186=ORIENTED_EDGE('',*,*,#228,.T.);
#187=ORIENTED_EDGE('',*,*,#229,.T.);
#188=ORIENTED_EDGE('',*,*,#230,.T.);
#189=ORIENTED_EDGE('',*,*,#231,.T.);
#190=ORIENTED_EDGE('',*,*,#232,.T.);
#191=ORIENTED_EDGE('',*,*,#233,.T.);
#192=ORIENTED_EDGE('',*,*,#234,.F.);
#193=ORIENTED_EDGE('',*,*,#227,.T.);
#194=ORIENTED_EDGE('',*,*,#235,.T.);
#195=ORIENTED_EDGE('',*,*,#234,.T.);
#196=ORIENTED_EDGE('',*,*,#233,.F.);
#197=ORIENTED_EDGE('',*,*,#232,.F.);
#198=ORIENTED_EDGE('',*,*,#231,.F.);
#199=ORIENTED_EDGE('',*,*,#230,.F.);
#200=ORIENTED_EDGE('',*,*,#229,.F.);
#201=ORIENTED_EDGE('',*,*,#228,.F.);
#202=ORIENTED_EDGE('',*,*,#236,.F.);
#203=ORIENTED_EDGE('',*,*,#236,.T.);
#204=ORIENTED_EDGE('',*,*,#235,.F.);
#205=ORIENTED_EDGE('',*,*,#237,.T.);
#206=ORIENTED_EDGE('',*,*,#238,.F.);
#207=ORIENTED_EDGE('',*,*,#239,.F.);
#208=ORIENTED_EDGE('',*,*,#240,.F.);
#209=ORIENTED_EDGE('',*,*,#238,.T.);
#210=ORIENTED_EDGE('',*,*,#240,.T.);
#211=ORIENTED_EDGE('',*,*,#239,.T.);
#212=ORIENTED_EDGE('',*,*,#237,.F.);
#213=VERTEX_POINT('',#347);
#214=VERTEX_POINT('',#350);
#215=VERTEX_POINT('',#352);
#216=VERTEX_POINT('',#354);
#217=VERTEX_POINT('',#356);
#218=VERTEX_POINT('',#358);
#219=VERTEX_POINT('',#360);
#220=VERTEX_POINT('',#362);
#221=VERTEX_POINT('',#365);
#222=VERTEX_POINT('',#374);
#223=VERTEX_POINT('',#378);
#224=VERTEX_POINT('',#380);
#225=VERTEX_POINT('',#383);
#226=VERTEX_POINT('',#385);
#227=EDGE_CURVE('',#213,#213,#241,.T.);
#228=EDGE_CURVE('',#214,#214,#242,.T.);
#229=EDGE_CURVE('',#215,#215,#243,.T.);
#230=EDGE_CURVE('',#216,#216,#244,.T.);
#231=EDGE_CURVE('',#217,#217,#245,.T.);
#232=EDGE_CURVE('',#218,#218,#246,.T.);
#233=EDGE_CURVE('',#219,#219,#247,.T.);
#234=EDGE_CURVE('',#220,#220,#248,.T.);
#235=EDGE_CURVE('',#221,#221,#249,.T.);
#236=EDGE_CURVE('',#222,#222,#250,.T.);
#237=EDGE_CURVE('',#223,#223,#251,.T.);
#238=EDGE_CURVE('',#224,#224,#252,.T.);
#239=EDGE_CURVE('',#225,#225,#253,.T.);
#240=EDGE_CURVE('',#226,#226,#254,.T.);
#241=CIRCLE('',#256,14.6201915172134);
#242=CIRCLE('',#258,5.56776436283001);
#243=CIRCLE('',#259,5.56776436283003);
#244=CIRCLE('',#260,5.56776436283001);
#245=CIRCLE('',#261,5.56776436283);
#246=CIRCLE('',#262,5.56776436283);
#247=CIRCLE('',#263,5.56776436283001);
#248=CIRCLE('',#264,14.6201915172134);
#249=CIRCLE('',#266,12.2);
#250=CIRCLE('',#274,12.2);
#251=CIRCLE('',#277,8.5);
#252=CIRCLE('',#278,12.);
#253=CIRCLE('',#280,8.5);
#254=CIRCLE('',#281,12.);
#255=AXIS2_PLACEMENT_3D('',#345,#285,#286);
#256=AXIS2_PLACEMENT_3D('',#346,#287,#288);
#257=AXIS2_PLACEMENT_3D('',#348,#289,#290);
#258=AXIS2_PLACEMENT_3D('',#349,#291,#292);
#259=AXIS2_PLACEMENT_3D('',#351,#293,#294);
#260=AXIS2_PLACEMENT_3D('',#353,#295,#296);
#261=AXIS2_PLACEMENT_3D('',#355,#297,#298);
#262=AXIS2_PLACEMENT_3D('',#357,#299,#300);
#263=AXIS2_PLACEMENT_3D('',#359,#301,#302);
#264=AXIS2_PLACEMENT_3D('',#361,#303,#304);
#265=AXIS2_PLACEMENT_3D('',#363,#305,#306);
#266=AXIS2_PLACEMENT_3D('',#364,#307,#308);
#267=AXIS2_PLACEMENT_3D('',#366,#309,#310);
#268=AXIS2_PLACEMENT_3D('',#367,#311,#312);
#269=AXIS2_PLACEMENT_3D('',#368,#313,#314);
#270=AXIS2_PLACEMENT_3D('',#369,#315,#316);
#271=AXIS2_PLACEMENT_3D('',#370,#317,#318);
#272=AXIS2_PLACEMENT_3D('',#371,#319,#320);
#273=AXIS2_PLACEMENT_3D('',#372,#321,#322);
#274=AXIS2_PLACEMENT_3D('',#373,#323,#324);
#275=AXIS2_PLACEMENT_3D('',#375,#325,#326);
#276=AXIS2_PLACEMENT_3D('',#376,#327,#328);
#277=AXIS2_PLACEMENT_3D('',#377,#329,#330);
#278=AXIS2_PLACEMENT_3D('',#379,#331,#332);
#279=AXIS2_PLACEMENT_3D('',#381,#333,#334);
#280=AXIS2_PLACEMENT_3D('',#382,#335,#336);
#281=AXIS2_PLACEMENT_3D('',#384,#337,#338);
#282=AXIS2_PLACEMENT_3D('',#386,#339,#340);
#283=AXIS2_PLACEMENT_3D('',#387,#341,#342);
#284=AXIS2_PLACEMENT_3D('',#388,#343,#344);
#285=DIRECTION('',(0.,0.,1.));
#286=DIRECTION('',(1.,0.,0.));
#287=DIRECTION('',(0.,-1.,0.));
#288=DIRECTION('',(0.,0.,-1.));
#289=DIRECTION('',(0.,-1.,0.));
#290=DIRECTION('',(0.,0.,-1.));
#291=DIRECTION('',(0.499999999999999,0.,0.866025403784439));
#292=DIRECTION('',(0.866025403784439,0.,-0.5));
#293=DIRECTION('',(-0.5,0.,0.866025403784438));
#294=DIRECTION('',(0.866025403784439,0.,0.5));
#295=DIRECTION('',(-1.,0.,-3.88578058618805E-016));
#296=DIRECTION('',(-3.11565533835752E-016,0.,1.));
#297=DIRECTION('',(-0.5,0.,-0.866025403784439));
#298=DIRECTION('',(-0.866025403784439,0.,0.5));
#299=DIRECTION('',(0.5,0.,-0.866025403784439));
#300=DIRECTION('',(-0.866025403784439,0.,-0.5));
#301=DIRECTION('',(1.,0.,0.));
#302=DIRECTION('',(0.,0.,-1.));
#303=DIRECTION('',(0.,-1.,0.));
#304=DIRECTION('',(0.,0.,-1.));
#305=DIRECTION('',(6.12323399573677E-017,-1.,0.));
#306=DIRECTION('',(1.,0.,0.));
#307=DIRECTION('',(0.,1.,0.));
#308=DIRECTION('',(0.,0.,1.));
#309=DIRECTION('',(0.,1.,0.));
#310=DIRECTION('',(0.,0.,1.));
#311=DIRECTION('',(1.,0.,0.));
#312=DIRECTION('',(0.,0.,-1.));
#313=DIRECTION('',(0.5,0.,-0.866025403784439));
#314=DIRECTION('',(-0.866025403784439,0.,-0.5));
#315=DIRECTION('',(-0.5,0.,-0.866025403784439));
#316=DIRECTION('',(-0.866025403784439,0.,0.5));
#317=DIRECTION('',(-1.,0.,-3.88578058618805E-016));
#318=DIRECTION('',(-3.88578058618805E-016,0.,1.));
#319=DIRECTION('',(-0.5,0.,0.866025403784438));
#320=DIRECTION('',(0.866025403784438,0.,0.5));
#321=DIRECTION('',(0.499999999999999,0.,0.866025403784439));
#322=DIRECTION('',(0.866025403784439,0.,-0.499999999999999));
#323=DIRECTION('',(0.,1.,0.));
#324=DIRECTION('',(0.,0.,1.));
#325=DIRECTION('',(0.,1.,0.));
#326=DIRECTION('',(0.,0.,1.));
#327=DIRECTION('',(0.,1.,0.));
#328=DIRECTION('',(0.,0.,1.));
#329=DIRECTION('',(0.,1.,0.));
#330=DIRECTION('',(-1.,0.,0.));
#331=DIRECTION('',(0.,1.,0.));
#332=DIRECTION('',(-1.,0.,0.));
#333=DIRECTION('',(0.,-1.,0.));
#334=DIRECTION('',(1.,0.,0.));
#335=DIRECTION('',(0.,1.,0.));
#336=DIRECTION('',(-1.,0.,0.));
#337=DIRECTION('',(0.,-1.,0.));
#338=DIRECTION('',(1.,0.,0.));
#339=DIRECTION('',(0.,1.,0.));
#340=DIRECTION('',(-1.,0.,0.));
#341=DIRECTION('',(0.,-1.,0.));
#342=DIRECTION('',(1.,0.,0.));
#343=DIRECTION('',(0.,1.,0.));
#344=DIRECTION('',(-1.,0.,0.));
#345=CARTESIAN_POINT('',(0.,0.,0.));
#346=CARTESIAN_POINT('',(0.,13.,0.));
#347=CARTESIAN_POINT('',(0.,13.,-14.6201915172134));
#348=CARTESIAN_POINT('',(0.,13.,0.));
#349=CARTESIAN_POINT('',(-7.49999999999999,6.5,-12.9903810567666));
#350=CARTESIAN_POINT('',(-2.67817461950352,6.5,-15.7742632381816));
#351=CARTESIAN_POINT('',(7.50000000000001,6.5,-12.9903810567666));
#352=CARTESIAN_POINT('',(12.3218253804965,6.5,-10.2064988753516));
#353=CARTESIAN_POINT('',(15.,6.5,5.82867087928207E-015));
#354=CARTESIAN_POINT('',(15.,6.5,5.56776436283002));
#355=CARTESIAN_POINT('',(7.5,6.5,12.9903810567666));
#356=CARTESIAN_POINT('',(2.67817461950354,6.5,15.7742632381816));
#357=CARTESIAN_POINT('',(-7.50000000000001,6.5,12.9903810567666));
#358=CARTESIAN_POINT('',(-12.3218253804965,6.5,10.2064988753516));
#359=CARTESIAN_POINT('',(-15.,6.5,0.));
#360=CARTESIAN_POINT('',(-15.,6.5,-5.56776436283001));
#361=CARTESIAN_POINT('',(0.,3.46944695195361E-015,0.));
#362=CARTESIAN_POINT('',(0.,3.46944695195361E-015,-14.6201915172134));
#363=CARTESIAN_POINT('',(0.,6.5,0.));
#364=CARTESIAN_POINT('',(-4.33680868994202E-016,1.88737914186277E-015,0.));
#365=CARTESIAN_POINT('',(-4.33680868994202E-016,1.88737914186277E-015,12.2));
#366=CARTESIAN_POINT('',(14.6201915172134,9.99200722162641E-016,0.));
#367=CARTESIAN_POINT('',(-15.,13.,50.));
#368=CARTESIAN_POINT('',(35.8012701892219,13.,37.9903810567666));
#369=CARTESIAN_POINT('',(50.8012701892219,13.,-12.0096189432334));
#370=CARTESIAN_POINT('',(15.,13.,-50.));
#371=CARTESIAN_POINT('',(-35.8012701892219,13.,-37.9903810567666));
#372=CARTESIAN_POINT('',(-50.8012701892219,13.,12.0096189432334));
#373=CARTESIAN_POINT('',(-4.33680868994202E-016,10.,0.));
#374=CARTESIAN_POINT('',(-4.33680868994202E-016,10.,12.2));
#375=CARTESIAN_POINT('',(-4.33680868994202E-016,10.,0.));
#376=CARTESIAN_POINT('',(-4.33680868994202E-016,1.88737914186277E-015,0.));
#377=CARTESIAN_POINT('',(-4.33680868994202E-016,8.,-8.67361737988404E-016));
#378=CARTESIAN_POINT('',(-8.5,8.,-8.67361737988404E-016));
#379=CARTESIAN_POINT('',(-4.33680868994202E-016,8.,0.));
#380=CARTESIAN_POINT('',(-12.,8.,0.));
#381=CARTESIAN_POINT('',(-4.33680868994202E-016,8.,0.));
#382=CARTESIAN_POINT('',(-4.33680868994202E-016,10.,-8.67361737988404E-016));
#383=CARTESIAN_POINT('',(-8.5,10.,-8.67361737988404E-016));
#384=CARTESIAN_POINT('',(-4.33680868994202E-016,10.,0.));
#385=CARTESIAN_POINT('',(12.,10.,0.));
#386=CARTESIAN_POINT('',(-4.33680868994202E-016,10.,0.));
#387=CARTESIAN_POINT('',(-4.33680868994202E-016,10.,0.));
#388=CARTESIAN_POINT('',(-4.33680868994202E-016,8.,-8.67361737988404E-016));
#389=(
GEOMETRIC_REPRESENTATION_CONTEXT(3)
GLOBAL_UNCERTAINTY_ASSIGNED_CONTEXT((#390))
GLOBAL_UNIT_ASSIGNED_CONTEXT((#396,#392,#391))
REPRESENTATION_CONTEXT('METU_E01V-4002_KST_3-4',
'TOP_LEVEL_ASSEMBLY_PART')
);
#390=UNCERTAINTY_MEASURE_WITH_UNIT(LENGTH_MEASURE(2.E-005),#396,
'DISTANCE_ACCURACY_VALUE','Maximum Tolerance applied to model');
#391=(
NAMED_UNIT(*)
SI_UNIT($,.STERADIAN.)
SOLID_ANGLE_UNIT()
);
#392=(
CONVERSION_BASED_UNIT('DEGREE',#394)
NAMED_UNIT(#393)
PLANE_ANGLE_UNIT()
);
#393=DIMENSIONAL_EXPONENTS(0.,0.,0.,0.,0.,0.,0.);
#394=PLANE_ANGLE_MEASURE_WITH_UNIT(PLANE_ANGLE_MEASURE(0.0174532925),#395);
#395=(
NAMED_UNIT(*)
PLANE_ANGLE_UNIT()
SI_UNIT($,.RADIAN.)
);
#396=(
LENGTH_UNIT()
NAMED_UNIT(*)
SI_UNIT(.MILLI.,.METRE.)
);
ENDSEC;
END-ISO-10303-21;
