ISO-10303-21;
HEADER;
/* Generated by software containing ST-Developer
 * from STEP Tools, Inc. (www.steptools.com) 
 */
/* OPTION: using custom schema-name function */

FILE_DESCRIPTION(
/* description */ (''),
/* implementation_level */ '2;1');

FILE_NAME(
/* name */ 'METU_E01V-4001_KST_1-2.stp',
/* time_stamp */ '2018-10-08T09:12:39+02:00',
/* author */ (''),
/* organization */ (''),
/* preprocessor_version */ 'ST-DEVELOPER v11',
/* originating_system */ 'SIEMENS UGS NX 6.0',
/* authorisation */ '');

FILE_SCHEMA (('CONFIG_CONTROL_DESIGN'));
ENDSEC;

DATA;
#10=SHAPE_REPRESENTATION_RELATIONSHIP('None',
'relationship between garsFA349mpx-None and garsFA349mpx-None',#94,#11);
#11=ADVANCED_BREP_SHAPE_REPRESENTATION('garsFA349mpx-None',(#104,#105),#389);
#12=CC_DESIGN_APPROVAL(#24,(#82));
#13=CC_DESIGN_APPROVAL(#25,(#84));
#14=CC_DESIGN_APPROVAL(#26,(#31));
#15=APPROVAL_PERSON_ORGANIZATION(#69,#24,#18);
#16=APPROVAL_PERSON_ORGANIZATION(#70,#25,#19);
#17=APPROVAL_PERSON_ORGANIZATION(#71,#26,#20);
#18=APPROVAL_ROLE('approver');
#19=APPROVAL_ROLE('approver');
#20=APPROVAL_ROLE('approver');
#21=APPROVAL_DATE_TIME(#39,#24);
#22=APPROVAL_DATE_TIME(#40,#25);
#23=APPROVAL_DATE_TIME(#41,#26);
#24=APPROVAL(#27,' ');
#25=APPROVAL(#28,' ');
#26=APPROVAL(#29,' ');
#27=APPROVAL_STATUS('not_yet_approved');
#28=APPROVAL_STATUS('not_yet_approved');
#29=APPROVAL_STATUS('not_yet_approved');
#30=CC_DESIGN_SECURITY_CLASSIFICATION(#31,(#84));
#31=SECURITY_CLASSIFICATION(' ',' ',#32);
#32=SECURITY_CLASSIFICATION_LEVEL('confidential');
#33=CC_DESIGN_DATE_AND_TIME_ASSIGNMENT(#37,#35,(#82));
#34=CC_DESIGN_DATE_AND_TIME_ASSIGNMENT(#38,#36,(#31));
#35=DATE_TIME_ROLE('creation_date');
#36=DATE_TIME_ROLE('classification_date');
#37=DATE_AND_TIME(#52,#42);
#38=DATE_AND_TIME(#53,#43);
#39=DATE_AND_TIME(#54,#44);
#40=DATE_AND_TIME(#55,#45);
#41=DATE_AND_TIME(#56,#46);
#42=LOCAL_TIME(0,0,0.,#47);
#43=LOCAL_TIME(0,0,0.,#48);
#44=LOCAL_TIME(0,0,0.,#49);
#45=LOCAL_TIME(0,0,0.,#50);
#46=LOCAL_TIME(0,0,0.,#51);
#47=COORDINATED_UNIVERSAL_TIME_OFFSET(0,0,.BEHIND.);
#48=COORDINATED_UNIVERSAL_TIME_OFFSET(0,0,.BEHIND.);
#49=COORDINATED_UNIVERSAL_TIME_OFFSET(0,0,.BEHIND.);
#50=COORDINATED_UNIVERSAL_TIME_OFFSET(0,0,.BEHIND.);
#51=COORDINATED_UNIVERSAL_TIME_OFFSET(0,0,.BEHIND.);
#52=CALENDAR_DATE(0,1,1);
#53=CALENDAR_DATE(0,1,1);
#54=CALENDAR_DATE(0,1,1);
#55=CALENDAR_DATE(0,1,1);
#56=CALENDAR_DATE(0,1,1);
#57=CC_DESIGN_PERSON_AND_ORGANIZATION_ASSIGNMENT(#65,#61,(#82,#84));
#58=CC_DESIGN_PERSON_AND_ORGANIZATION_ASSIGNMENT(#66,#62,(#86));
#59=CC_DESIGN_PERSON_AND_ORGANIZATION_ASSIGNMENT(#67,#63,(#84));
#60=CC_DESIGN_PERSON_AND_ORGANIZATION_ASSIGNMENT(#68,#64,(#31));
#61=PERSON_AND_ORGANIZATION_ROLE('creator');
#62=PERSON_AND_ORGANIZATION_ROLE('design_owner');
#63=PERSON_AND_ORGANIZATION_ROLE('design_supplier');
#64=PERSON_AND_ORGANIZATION_ROLE('classification_officer');
#65=PERSON_AND_ORGANIZATION(#79,#72);
#66=PERSON_AND_ORGANIZATION(#79,#73);
#67=PERSON_AND_ORGANIZATION(#79,#74);
#68=PERSON_AND_ORGANIZATION(#79,#75);
#69=PERSON_AND_ORGANIZATION(#79,#76);
#70=PERSON_AND_ORGANIZATION(#79,#77);
#71=PERSON_AND_ORGANIZATION(#79,#78);
#72=ORGANIZATION(' ',' ',' ');
#73=ORGANIZATION(' ',' ',' ');
#74=ORGANIZATION(' ',' ',' ');
#75=ORGANIZATION(' ',' ',' ');
#76=ORGANIZATION(' ',' ',' ');
#77=ORGANIZATION(' ',' ',' ');
#78=ORGANIZATION(' ',' ',' ');
#79=PERSON(' ',' ',' ',(' '),$,$);
#80=SHAPE_DEFINITION_REPRESENTATION(#81,#94);
#81=PRODUCT_DEFINITION_SHAPE('','',#82);
#82=PRODUCT_DEFINITION(' ','',#84,#83);
#83=DESIGN_CONTEXT('',#93,'design');
#84=PRODUCT_DEFINITION_FORMATION_WITH_SPECIFIED_SOURCE(' ',' ',#86,.NOT_KNOWN.);
#85=PRODUCT_RELATED_PRODUCT_CATEGORY('detail','',(#86));
#86=PRODUCT('garsFA349mpx','garsFA349mpx',' ',(#91));
#87=PRODUCT_CATEGORY_RELATIONSHIP(' ',' ',#89,#90);
#88=PRODUCT_CATEGORY_RELATIONSHIP('','',#90,#85);
#89=PRODUCT_CATEGORY('part',' ');
#90=PRODUCT_CATEGORY(' ','');
#91=MECHANICAL_CONTEXT(' ',#93,'mechanical');
#92=APPLICATION_PROTOCOL_DEFINITION('international standard',
'config_control_design',1994,#93);
#93=APPLICATION_CONTEXT(
'configuration controlled 3D designs of mechanical parts and assemblies');
#94=SHAPE_REPRESENTATION('garsFA349mpx-None',(#255),#389);
#95=SPHERICAL_SURFACE('',#273,13.5);
#96=FACE_OUTER_BOUND('',#165,.T.);
#97=FACE_OUTER_BOUND('',#176,.T.);
#98=FACE_OUTER_BOUND('',#177,.T.);
#99=FACE_OUTER_BOUND('',#178,.T.);
#100=FACE_OUTER_BOUND('',#179,.T.);
#101=FACE_OUTER_BOUND('',#180,.T.);
#102=FACE_OUTER_BOUND('',#181,.T.);
#103=FACE_OUTER_BOUND('',#182,.T.);
#104=MANIFOLD_SOLID_BREP('',#106);
#105=MANIFOLD_SOLID_BREP('',#107);
#106=CLOSED_SHELL('',(#111,#112,#113,#114));
#107=CLOSED_SHELL('',(#115,#116,#117,#118,#119,#120,#121,#122,#123,#124,
#125));
#108=CYLINDRICAL_SURFACE('',#262,9.);
#109=CYLINDRICAL_SURFACE('',#263,5.75);
#110=CYLINDRICAL_SURFACE('',#284,9.45);
#111=ADVANCED_FACE('',(#137,#138),#126,.T.);
#112=ADVANCED_FACE('',(#139,#140),#127,.T.);
#113=ADVANCED_FACE('',(#141,#142),#108,.T.);
#114=ADVANCED_FACE('',(#143,#144),#109,.F.);
#115=ADVANCED_FACE('',(#96),#128,.F.);
#116=ADVANCED_FACE('',(#145,#146,#147,#148,#149,#150,#151,#152),#95,.T.);
#117=ADVANCED_FACE('',(#153,#154),#129,.F.);
#118=ADVANCED_FACE('',(#97),#130,.F.);
#119=ADVANCED_FACE('',(#98),#131,.F.);
#120=ADVANCED_FACE('',(#99),#132,.F.);
#121=ADVANCED_FACE('',(#100),#133,.F.);
#122=ADVANCED_FACE('',(#101),#134,.F.);
#123=ADVANCED_FACE('',(#102),#135,.F.);
#124=ADVANCED_FACE('',(#103),#136,.F.);
#125=ADVANCED_FACE('',(#155,#156),#110,.F.);
#126=PLANE('',#258);
#127=PLANE('',#261);
#128=PLANE('',#265);
#129=PLANE('',#275);
#130=PLANE('',#276);
#131=PLANE('',#277);
#132=PLANE('',#278);
#133=PLANE('',#279);
#134=PLANE('',#280);
#135=PLANE('',#281);
#136=PLANE('',#283);
#137=FACE_BOUND('',#157,.T.);
#138=FACE_BOUND('',#158,.T.);
#139=FACE_BOUND('',#159,.T.);
#140=FACE_BOUND('',#160,.T.);
#141=FACE_BOUND('',#161,.T.);
#142=FACE_BOUND('',#162,.T.);
#143=FACE_BOUND('',#163,.T.);
#144=FACE_BOUND('',#164,.T.);
#145=FACE_BOUND('',#166,.T.);
#146=FACE_BOUND('',#167,.T.);
#147=FACE_BOUND('',#168,.T.);
#148=FACE_BOUND('',#169,.T.);
#149=FACE_BOUND('',#170,.T.);
#150=FACE_BOUND('',#171,.T.);
#151=FACE_BOUND('',#172,.T.);
#152=FACE_BOUND('',#173,.T.);
#153=FACE_BOUND('',#174,.T.);
#154=FACE_BOUND('',#175,.T.);
#155=FACE_BOUND('',#183,.T.);
#156=FACE_BOUND('',#184,.T.);
#157=EDGE_LOOP('',(#185));
#158=EDGE_LOOP('',(#186));
#159=EDGE_LOOP('',(#187));
#160=EDGE_LOOP('',(#188));
#161=EDGE_LOOP('',(#189));
#162=EDGE_LOOP('',(#190));
#163=EDGE_LOOP('',(#191));
#164=EDGE_LOOP('',(#192));
#165=EDGE_LOOP('',(#193));
#166=EDGE_LOOP('',(#194));
#167=EDGE_LOOP('',(#195));
#168=EDGE_LOOP('',(#196));
#169=EDGE_LOOP('',(#197));
#170=EDGE_LOOP('',(#198));
#171=EDGE_LOOP('',(#199));
#172=EDGE_LOOP('',(#200));
#173=EDGE_LOOP('',(#201));
#174=EDGE_LOOP('',(#202));
#175=EDGE_LOOP('',(#203));
#176=EDGE_LOOP('',(#204));
#177=EDGE_LOOP('',(#205));
#178=EDGE_LOOP('',(#206));
#179=EDGE_LOOP('',(#207));
#180=EDGE_LOOP('',(#208));
#181=EDGE_LOOP('',(#209));
#182=EDGE_LOOP('',(#210));
#183=EDGE_LOOP('',(#211));
#184=EDGE_LOOP('',(#212));
#185=ORIENTED_EDGE('',*,*,#227,.T.);
#186=ORIENTED_EDGE('',*,*,#228,.F.);
#187=ORIENTED_EDGE('',*,*,#229,.F.);
#188=ORIENTED_EDGE('',*,*,#230,.F.);
#189=ORIENTED_EDGE('',*,*,#228,.T.);
#190=ORIENTED_EDGE('',*,*,#230,.T.);
#191=ORIENTED_EDGE('',*,*,#229,.T.);
#192=ORIENTED_EDGE('',*,*,#227,.F.);
#193=ORIENTED_EDGE('',*,*,#231,.F.);
#194=ORIENTED_EDGE('',*,*,#232,.T.);
#195=ORIENTED_EDGE('',*,*,#233,.T.);
#196=ORIENTED_EDGE('',*,*,#234,.T.);
#197=ORIENTED_EDGE('',*,*,#235,.T.);
#198=ORIENTED_EDGE('',*,*,#236,.T.);
#199=ORIENTED_EDGE('',*,*,#237,.T.);
#200=ORIENTED_EDGE('',*,*,#238,.F.);
#201=ORIENTED_EDGE('',*,*,#231,.T.);
#202=ORIENTED_EDGE('',*,*,#239,.T.);
#203=ORIENTED_EDGE('',*,*,#238,.T.);
#204=ORIENTED_EDGE('',*,*,#237,.F.);
#205=ORIENTED_EDGE('',*,*,#236,.F.);
#206=ORIENTED_EDGE('',*,*,#235,.F.);
#207=ORIENTED_EDGE('',*,*,#234,.F.);
#208=ORIENTED_EDGE('',*,*,#233,.F.);
#209=ORIENTED_EDGE('',*,*,#232,.F.);
#210=ORIENTED_EDGE('',*,*,#240,.F.);
#211=ORIENTED_EDGE('',*,*,#240,.T.);
#212=ORIENTED_EDGE('',*,*,#239,.F.);
#213=VERTEX_POINT('',#347);
#214=VERTEX_POINT('',#349);
#215=VERTEX_POINT('',#352);
#216=VERTEX_POINT('',#354);
#217=VERTEX_POINT('',#359);
#218=VERTEX_POINT('',#362);
#219=VERTEX_POINT('',#364);
#220=VERTEX_POINT('',#366);
#221=VERTEX_POINT('',#368);
#222=VERTEX_POINT('',#370);
#223=VERTEX_POINT('',#372);
#224=VERTEX_POINT('',#374);
#225=VERTEX_POINT('',#377);
#226=VERTEX_POINT('',#386);
#227=EDGE_CURVE('',#213,#213,#241,.T.);
#228=EDGE_CURVE('',#214,#214,#242,.T.);
#229=EDGE_CURVE('',#215,#215,#243,.T.);
#230=EDGE_CURVE('',#216,#216,#244,.T.);
#231=EDGE_CURVE('',#217,#217,#245,.T.);
#232=EDGE_CURVE('',#218,#218,#246,.T.);
#233=EDGE_CURVE('',#219,#219,#247,.T.);
#234=EDGE_CURVE('',#220,#220,#248,.T.);
#235=EDGE_CURVE('',#221,#221,#249,.T.);
#236=EDGE_CURVE('',#222,#222,#250,.T.);
#237=EDGE_CURVE('',#223,#223,#251,.T.);
#238=EDGE_CURVE('',#224,#224,#252,.T.);
#239=EDGE_CURVE('',#225,#225,#253,.T.);
#240=EDGE_CURVE('',#226,#226,#254,.T.);
#241=CIRCLE('',#256,5.75);
#242=CIRCLE('',#257,9.);
#243=CIRCLE('',#259,5.75);
#244=CIRCLE('',#260,9.);
#245=CIRCLE('',#264,11.8321595661992);
#246=CIRCLE('',#266,6.18465843842648);
#247=CIRCLE('',#267,6.18465843842649);
#248=CIRCLE('',#268,6.18465843842649);
#249=CIRCLE('',#269,6.18465843842648);
#250=CIRCLE('',#270,6.18465843842647);
#251=CIRCLE('',#271,6.18465843842649);
#252=CIRCLE('',#272,11.8321595661992);
#253=CIRCLE('',#274,9.45);
#254=CIRCLE('',#282,9.45);
#255=AXIS2_PLACEMENT_3D('',#345,#285,#286);
#256=AXIS2_PLACEMENT_3D('',#346,#287,#288);
#257=AXIS2_PLACEMENT_3D('',#348,#289,#290);
#258=AXIS2_PLACEMENT_3D('',#350,#291,#292);
#259=AXIS2_PLACEMENT_3D('',#351,#293,#294);
#260=AXIS2_PLACEMENT_3D('',#353,#295,#296);
#261=AXIS2_PLACEMENT_3D('',#355,#297,#298);
#262=AXIS2_PLACEMENT_3D('',#356,#299,#300);
#263=AXIS2_PLACEMENT_3D('',#357,#301,#302);
#264=AXIS2_PLACEMENT_3D('',#358,#303,#304);
#265=AXIS2_PLACEMENT_3D('',#360,#305,#306);
#266=AXIS2_PLACEMENT_3D('',#361,#307,#308);
#267=AXIS2_PLACEMENT_3D('',#363,#309,#310);
#268=AXIS2_PLACEMENT_3D('',#365,#311,#312);
#269=AXIS2_PLACEMENT_3D('',#367,#313,#314);
#270=AXIS2_PLACEMENT_3D('',#369,#315,#316);
#271=AXIS2_PLACEMENT_3D('',#371,#317,#318);
#272=AXIS2_PLACEMENT_3D('',#373,#319,#320);
#273=AXIS2_PLACEMENT_3D('',#375,#321,#322);
#274=AXIS2_PLACEMENT_3D('',#376,#323,#324);
#275=AXIS2_PLACEMENT_3D('',#378,#325,#326);
#276=AXIS2_PLACEMENT_3D('',#379,#327,#328);
#277=AXIS2_PLACEMENT_3D('',#380,#329,#330);
#278=AXIS2_PLACEMENT_3D('',#381,#331,#332);
#279=AXIS2_PLACEMENT_3D('',#382,#333,#334);
#280=AXIS2_PLACEMENT_3D('',#383,#335,#336);
#281=AXIS2_PLACEMENT_3D('',#384,#337,#338);
#282=AXIS2_PLACEMENT_3D('',#385,#339,#340);
#283=AXIS2_PLACEMENT_3D('',#387,#341,#342);
#284=AXIS2_PLACEMENT_3D('',#388,#343,#344);
#285=DIRECTION('',(0.,0.,1.));
#286=DIRECTION('',(1.,0.,0.));
#287=DIRECTION('',(0.,1.,0.));
#288=DIRECTION('',(-1.,0.,0.));
#289=DIRECTION('',(0.,1.,0.));
#290=DIRECTION('',(-1.,0.,0.));
#291=DIRECTION('',(0.,-1.,0.));
#292=DIRECTION('',(1.,0.,0.));
#293=DIRECTION('',(0.,1.,0.));
#294=DIRECTION('',(-1.,0.,0.));
#295=DIRECTION('',(0.,-1.,0.));
#296=DIRECTION('',(1.,0.,0.));
#297=DIRECTION('',(0.,1.,0.));
#298=DIRECTION('',(-1.,0.,0.));
#299=DIRECTION('',(0.,-1.,0.));
#300=DIRECTION('',(1.,0.,0.));
#301=DIRECTION('',(0.,1.,0.));
#302=DIRECTION('',(-1.,0.,0.));
#303=DIRECTION('',(0.,-1.,0.));
#304=DIRECTION('',(0.,0.,-1.));
#305=DIRECTION('',(0.,-1.,0.));
#306=DIRECTION('',(0.,0.,-1.));
#307=DIRECTION('',(0.499999999999999,0.,0.866025403784439));
#308=DIRECTION('',(0.866025403784439,0.,-0.499999999999999));
#309=DIRECTION('',(-0.5,0.,0.866025403784438));
#310=DIRECTION('',(0.866025403784438,0.,0.5));
#311=DIRECTION('',(-1.,0.,-3.88578058618805E-016));
#312=DIRECTION('',(-2.80488161674157E-016,0.,1.));
#313=DIRECTION('',(-0.5,0.,-0.866025403784439));
#314=DIRECTION('',(-0.866025403784439,0.,0.5));
#315=DIRECTION('',(0.5,0.,-0.866025403784439));
#316=DIRECTION('',(-0.866025403784439,0.,-0.5));
#317=DIRECTION('',(1.,0.,0.));
#318=DIRECTION('',(0.,0.,-1.));
#319=DIRECTION('',(0.,-1.,0.));
#320=DIRECTION('',(0.,0.,-1.));
#321=DIRECTION('',(6.12323399573677E-017,-1.,0.));
#322=DIRECTION('',(1.,0.,0.));
#323=DIRECTION('',(0.,1.,0.));
#324=DIRECTION('',(0.,0.,1.));
#325=DIRECTION('',(0.,1.,0.));
#326=DIRECTION('',(0.,0.,1.));
#327=DIRECTION('',(1.,0.,0.));
#328=DIRECTION('',(0.,0.,-1.));
#329=DIRECTION('',(0.5,0.,-0.866025403784439));
#330=DIRECTION('',(-0.866025403784439,0.,-0.5));
#331=DIRECTION('',(-0.5,0.,-0.866025403784439));
#332=DIRECTION('',(-0.866025403784439,0.,0.5));
#333=DIRECTION('',(-1.,0.,-3.88578058618805E-016));
#334=DIRECTION('',(-3.88578058618805E-016,0.,1.));
#335=DIRECTION('',(-0.5,0.,0.866025403784438));
#336=DIRECTION('',(0.866025403784438,0.,0.5));
#337=DIRECTION('',(0.499999999999999,0.,0.866025403784439));
#338=DIRECTION('',(0.866025403784439,0.,-0.499999999999999));
#339=DIRECTION('',(0.,1.,0.));
#340=DIRECTION('',(0.,0.,1.));
#341=DIRECTION('',(0.,1.,0.));
#342=DIRECTION('',(0.,0.,1.));
#343=DIRECTION('',(0.,1.,0.));
#344=DIRECTION('',(0.,0.,1.));
#345=CARTESIAN_POINT('',(0.,0.,0.));
#346=CARTESIAN_POINT('',(-4.33680868994202E-016,8.,-8.67361737988404E-016));
#347=CARTESIAN_POINT('',(-5.75,8.,-8.67361737988404E-016));
#348=CARTESIAN_POINT('',(-4.33680868994202E-016,8.,0.));
#349=CARTESIAN_POINT('',(-9.,8.,0.));
#350=CARTESIAN_POINT('',(-4.33680868994202E-016,8.,0.));
#351=CARTESIAN_POINT('',(-4.33680868994202E-016,10.,-8.67361737988404E-016));
#352=CARTESIAN_POINT('',(-5.75,10.,-8.67361737988404E-016));
#353=CARTESIAN_POINT('',(-4.33680868994202E-016,10.,0.));
#354=CARTESIAN_POINT('',(9.,10.,0.));
#355=CARTESIAN_POINT('',(-4.33680868994202E-016,10.,0.));
#356=CARTESIAN_POINT('',(-4.33680868994202E-016,10.,0.));
#357=CARTESIAN_POINT('',(-4.33680868994202E-016,8.,-8.67361737988404E-016));
#358=CARTESIAN_POINT('',(0.,13.,0.));
#359=CARTESIAN_POINT('',(0.,13.,-11.8321595661992));
#360=CARTESIAN_POINT('',(0.,13.,0.));
#361=CARTESIAN_POINT('',(-5.99999999999999,6.50000000000002,-10.3923048454133));
#362=CARTESIAN_POINT('',(-0.64392867859286,6.50000000000002,-13.4846340646265));
#363=CARTESIAN_POINT('',(6.,6.50000000000002,-10.3923048454133));
#364=CARTESIAN_POINT('',(11.3560713214071,6.50000000000002,-7.29997562620001));
#365=CARTESIAN_POINT('',(12.,6.50000000000002,4.66293670342566E-015));
#366=CARTESIAN_POINT('',(12.,6.50000000000002,6.18465843842649));
#367=CARTESIAN_POINT('',(6.,6.50000000000002,10.3923048454133));
#368=CARTESIAN_POINT('',(0.643928678592867,6.50000000000002,13.4846340646265));
#369=CARTESIAN_POINT('',(-6.00000000000001,6.50000000000002,10.3923048454133));
#370=CARTESIAN_POINT('',(-11.3560713214071,6.50000000000002,7.29997562620003));
#371=CARTESIAN_POINT('',(-12.,6.50000000000002,0.));
#372=CARTESIAN_POINT('',(-12.,6.50000000000002,-6.18465843842649));
#373=CARTESIAN_POINT('',(0.,3.46944695195361E-015,0.));
#374=CARTESIAN_POINT('',(0.,3.46944695195361E-015,-11.8321595661992));
#375=CARTESIAN_POINT('',(0.,6.50000000000002,0.));
#376=CARTESIAN_POINT('',(-4.33680868994202E-016,1.88737914186277E-015,0.));
#377=CARTESIAN_POINT('',(-4.33680868994202E-016,1.88737914186277E-015,9.45));
#378=CARTESIAN_POINT('',(11.8321595661992,1.88737914186277E-015,0.));
#379=CARTESIAN_POINT('',(-12.,13.,50.));
#380=CARTESIAN_POINT('',(37.3012701892219,13.,35.3923048454133));
#381=CARTESIAN_POINT('',(49.3012701892219,13.,-14.6076951545867));
#382=CARTESIAN_POINT('',(12.,13.,-50.));
#383=CARTESIAN_POINT('',(-37.3012701892219,13.,-35.3923048454133));
#384=CARTESIAN_POINT('',(-49.3012701892219,13.,14.6076951545867));
#385=CARTESIAN_POINT('',(-4.33680868994202E-016,10.,0.));
#386=CARTESIAN_POINT('',(-4.33680868994202E-016,10.,9.45));
#387=CARTESIAN_POINT('',(-4.33680868994202E-016,10.,0.));
#388=CARTESIAN_POINT('',(-4.33680868994202E-016,1.88737914186277E-015,0.));
#389=(
GEOMETRIC_REPRESENTATION_CONTEXT(3)
GLOBAL_UNCERTAINTY_ASSIGNED_CONTEXT((#390))
GLOBAL_UNIT_ASSIGNED_CONTEXT((#396,#392,#391))
REPRESENTATION_CONTEXT('METU_E01V-4001_KST_1-2',
'TOP_LEVEL_ASSEMBLY_PART')
);
#390=UNCERTAINTY_MEASURE_WITH_UNIT(LENGTH_MEASURE(2.E-005),#396,
'DISTANCE_ACCURACY_VALUE','Maximum Tolerance applied to model');
#391=(
NAMED_UNIT(*)
SI_UNIT($,.STERADIAN.)
SOLID_ANGLE_UNIT()
);
#392=(
CONVERSION_BASED_UNIT('DEGREE',#394)
NAMED_UNIT(#393)
PLANE_ANGLE_UNIT()
);
#393=DIMENSIONAL_EXPONENTS(0.,0.,0.,0.,0.,0.,0.);
#394=PLANE_ANGLE_MEASURE_WITH_UNIT(PLANE_ANGLE_MEASURE(0.0174532925),#395);
#395=(
NAMED_UNIT(*)
PLANE_ANGLE_UNIT()
SI_UNIT($,.RADIAN.)
);
#396=(
LENGTH_UNIT()
NAMED_UNIT(*)
SI_UNIT(.MILLI.,.METRE.)
);
ENDSEC;
END-ISO-10303-21;
