ISO-10303-21;
HEADER;
/* Generated by software containing ST-Developer
 * from STEP Tools, Inc. (www.steptools.com) 
 */
/* OPTION: using custom schema-name function */

FILE_DESCRIPTION(
/* description */ (''),
/* implementation_level */ '2;1');

FILE_NAME(
/* name */ 'METU_E01V-2002_ST-K_3-4.stp',
/* time_stamp */ '2018-10-05T14:33:44+02:00',
/* author */ (''),
/* organization */ (''),
/* preprocessor_version */ 'ST-DEVELOPER v11',
/* originating_system */ 'SIEMENS UGS NX 6.0',
/* authorisation */ '');

FILE_SCHEMA (('CONFIG_CONTROL_DESIGN'));
ENDSEC;

DATA;
#10=SHAPE_REPRESENTATION_RELATIONSHIP('None',
'relationship between gars64E343c0-None and gars64E343c0-None',#94,#11);
#11=ADVANCED_BREP_SHAPE_REPRESENTATION('gars64E343c0-None',(#97,#98,#99),
#573);
#12=CC_DESIGN_APPROVAL(#24,(#82));
#13=CC_DESIGN_APPROVAL(#25,(#84));
#14=CC_DESIGN_APPROVAL(#26,(#31));
#15=APPROVAL_PERSON_ORGANIZATION(#69,#24,#18);
#16=APPROVAL_PERSON_ORGANIZATION(#70,#25,#19);
#17=APPROVAL_PERSON_ORGANIZATION(#71,#26,#20);
#18=APPROVAL_ROLE('approver');
#19=APPROVAL_ROLE('approver');
#20=APPROVAL_ROLE('approver');
#21=APPROVAL_DATE_TIME(#39,#24);
#22=APPROVAL_DATE_TIME(#40,#25);
#23=APPROVAL_DATE_TIME(#41,#26);
#24=APPROVAL(#27,' ');
#25=APPROVAL(#28,' ');
#26=APPROVAL(#29,' ');
#27=APPROVAL_STATUS('not_yet_approved');
#28=APPROVAL_STATUS('not_yet_approved');
#29=APPROVAL_STATUS('not_yet_approved');
#30=CC_DESIGN_SECURITY_CLASSIFICATION(#31,(#84));
#31=SECURITY_CLASSIFICATION(' ',' ',#32);
#32=SECURITY_CLASSIFICATION_LEVEL('confidential');
#33=CC_DESIGN_DATE_AND_TIME_ASSIGNMENT(#37,#35,(#82));
#34=CC_DESIGN_DATE_AND_TIME_ASSIGNMENT(#38,#36,(#31));
#35=DATE_TIME_ROLE('creation_date');
#36=DATE_TIME_ROLE('classification_date');
#37=DATE_AND_TIME(#52,#42);
#38=DATE_AND_TIME(#53,#43);
#39=DATE_AND_TIME(#54,#44);
#40=DATE_AND_TIME(#55,#45);
#41=DATE_AND_TIME(#56,#46);
#42=LOCAL_TIME(0,0,0.,#47);
#43=LOCAL_TIME(0,0,0.,#48);
#44=LOCAL_TIME(0,0,0.,#49);
#45=LOCAL_TIME(0,0,0.,#50);
#46=LOCAL_TIME(0,0,0.,#51);
#47=COORDINATED_UNIVERSAL_TIME_OFFSET(0,0,.BEHIND.);
#48=COORDINATED_UNIVERSAL_TIME_OFFSET(0,0,.BEHIND.);
#49=COORDINATED_UNIVERSAL_TIME_OFFSET(0,0,.BEHIND.);
#50=COORDINATED_UNIVERSAL_TIME_OFFSET(0,0,.BEHIND.);
#51=COORDINATED_UNIVERSAL_TIME_OFFSET(0,0,.BEHIND.);
#52=CALENDAR_DATE(0,1,1);
#53=CALENDAR_DATE(0,1,1);
#54=CALENDAR_DATE(0,1,1);
#55=CALENDAR_DATE(0,1,1);
#56=CALENDAR_DATE(0,1,1);
#57=CC_DESIGN_PERSON_AND_ORGANIZATION_ASSIGNMENT(#65,#61,(#82,#84));
#58=CC_DESIGN_PERSON_AND_ORGANIZATION_ASSIGNMENT(#66,#62,(#86));
#59=CC_DESIGN_PERSON_AND_ORGANIZATION_ASSIGNMENT(#67,#63,(#84));
#60=CC_DESIGN_PERSON_AND_ORGANIZATION_ASSIGNMENT(#68,#64,(#31));
#61=PERSON_AND_ORGANIZATION_ROLE('creator');
#62=PERSON_AND_ORGANIZATION_ROLE('design_owner');
#63=PERSON_AND_ORGANIZATION_ROLE('design_supplier');
#64=PERSON_AND_ORGANIZATION_ROLE('classification_officer');
#65=PERSON_AND_ORGANIZATION(#79,#72);
#66=PERSON_AND_ORGANIZATION(#79,#73);
#67=PERSON_AND_ORGANIZATION(#79,#74);
#68=PERSON_AND_ORGANIZATION(#79,#75);
#69=PERSON_AND_ORGANIZATION(#79,#76);
#70=PERSON_AND_ORGANIZATION(#79,#77);
#71=PERSON_AND_ORGANIZATION(#79,#78);
#72=ORGANIZATION(' ',' ',' ');
#73=ORGANIZATION(' ',' ',' ');
#74=ORGANIZATION(' ',' ',' ');
#75=ORGANIZATION(' ',' ',' ');
#76=ORGANIZATION(' ',' ',' ');
#77=ORGANIZATION(' ',' ',' ');
#78=ORGANIZATION(' ',' ',' ');
#79=PERSON(' ',' ',' ',(' '),$,$);
#80=SHAPE_DEFINITION_REPRESENTATION(#81,#94);
#81=PRODUCT_DEFINITION_SHAPE('','',#82);
#82=PRODUCT_DEFINITION(' ','',#84,#83);
#83=DESIGN_CONTEXT('',#93,'design');
#84=PRODUCT_DEFINITION_FORMATION_WITH_SPECIFIED_SOURCE(' ',' ',#86,.NOT_KNOWN.);
#85=PRODUCT_RELATED_PRODUCT_CATEGORY('detail','',(#86));
#86=PRODUCT('gars64E343c0','gars64E343c0',' ',(#91));
#87=PRODUCT_CATEGORY_RELATIONSHIP(' ',' ',#89,#90);
#88=PRODUCT_CATEGORY_RELATIONSHIP('','',#90,#85);
#89=PRODUCT_CATEGORY('part',' ');
#90=PRODUCT_CATEGORY(' ','');
#91=MECHANICAL_CONTEXT(' ',#93,'mechanical');
#92=APPLICATION_PROTOCOL_DEFINITION('international standard',
'config_control_design',1994,#93);
#93=APPLICATION_CONTEXT(
'configuration controlled 3D designs of mechanical parts and assemblies');
#94=SHAPE_REPRESENTATION('gars64E343c0-None',(#376),#573);
#95=CONICAL_SURFACE('',#390,17.5,70.);
#96=CONICAL_SURFACE('',#404,21.5,60.);
#97=MANIFOLD_SOLID_BREP('',#100);
#98=MANIFOLD_SOLID_BREP('',#101);
#99=MANIFOLD_SOLID_BREP('',#102);
#100=CLOSED_SHELL('',(#115,#116,#117,#118,#119,#120,#121,#122,#123));
#101=CLOSED_SHELL('',(#124,#125,#126,#127,#128,#129));
#102=CLOSED_SHELL('',(#130,#131,#132,#133,#134));
#103=FACE_OUTER_BOUND('',#217,.T.);
#104=FACE_OUTER_BOUND('',#218,.T.);
#105=FACE_OUTER_BOUND('',#219,.T.);
#106=FACE_OUTER_BOUND('',#220,.T.);
#107=FACE_OUTER_BOUND('',#221,.T.);
#108=FACE_OUTER_BOUND('',#222,.T.);
#109=CYLINDRICAL_SURFACE('',#381,12.2);
#110=CYLINDRICAL_SURFACE('',#397,13.22);
#111=CYLINDRICAL_SURFACE('',#398,17.5);
#112=CYLINDRICAL_SURFACE('',#399,10.);
#113=CYLINDRICAL_SURFACE('',#406,14.);
#114=CYLINDRICAL_SURFACE('',#409,22.5);
#115=ADVANCED_FACE('',(#183,#184),#135,.T.);
#116=ADVANCED_FACE('',(#185,#186),#136,.T.);
#117=ADVANCED_FACE('',(#187,#188),#109,.F.);
#118=ADVANCED_FACE('',(#103),#137,.F.);
#119=ADVANCED_FACE('',(#104),#138,.F.);
#120=ADVANCED_FACE('',(#105),#139,.F.);
#121=ADVANCED_FACE('',(#106),#140,.F.);
#122=ADVANCED_FACE('',(#107),#141,.F.);
#123=ADVANCED_FACE('',(#108),#142,.F.);
#124=ADVANCED_FACE('',(#189,#190),#95,.T.);
#125=ADVANCED_FACE('',(#191,#192),#143,.T.);
#126=ADVANCED_FACE('',(#193,#194),#144,.T.);
#127=ADVANCED_FACE('',(#195,#196),#110,.T.);
#128=ADVANCED_FACE('',(#197,#198),#111,.T.);
#129=ADVANCED_FACE('',(#199,#200),#112,.F.);
#130=ADVANCED_FACE('',(#201,#202),#145,.T.);
#131=ADVANCED_FACE('',(#203,#204),#96,.F.);
#132=ADVANCED_FACE('',(#205,#206),#113,.F.);
#133=ADVANCED_FACE('',(#207,#208),#146,.T.);
#134=ADVANCED_FACE('',(#209,#210),#114,.T.);
#135=PLANE('',#378);
#136=PLANE('',#380);
#137=PLANE('',#382);
#138=PLANE('',#383);
#139=PLANE('',#384);
#140=PLANE('',#385);
#141=PLANE('',#386);
#142=PLANE('',#387);
#143=PLANE('',#393);
#144=PLANE('',#396);
#145=PLANE('',#402);
#146=PLANE('',#408);
#147=LINE('',#499,#165);
#148=LINE('',#502,#166);
#149=LINE('',#504,#167);
#150=LINE('',#506,#168);
#151=LINE('',#508,#169);
#152=LINE('',#510,#170);
#153=LINE('',#514,#171);
#154=LINE('',#517,#172);
#155=LINE('',#519,#173);
#156=LINE('',#521,#174);
#157=LINE('',#523,#175);
#158=LINE('',#525,#176);
#159=LINE('',#528,#177);
#160=LINE('',#529,#178);
#161=LINE('',#531,#179);
#162=LINE('',#533,#180);
#163=LINE('',#535,#181);
#164=LINE('',#537,#182);
#165=VECTOR('',#414,1.);
#166=VECTOR('',#415,1.);
#167=VECTOR('',#416,1.);
#168=VECTOR('',#417,1.);
#169=VECTOR('',#418,1.);
#170=VECTOR('',#419,1.);
#171=VECTOR('',#424,1.);
#172=VECTOR('',#425,1.);
#173=VECTOR('',#426,1.);
#174=VECTOR('',#427,1.);
#175=VECTOR('',#428,1.);
#176=VECTOR('',#429,1.);
#177=VECTOR('',#434,1.);
#178=VECTOR('',#435,1.);
#179=VECTOR('',#438,1.);
#180=VECTOR('',#441,1.);
#181=VECTOR('',#444,1.);
#182=VECTOR('',#447,1.);
#183=FACE_BOUND('',#211,.T.);
#184=FACE_BOUND('',#212,.T.);
#185=FACE_BOUND('',#213,.T.);
#186=FACE_BOUND('',#214,.T.);
#187=FACE_BOUND('',#215,.T.);
#188=FACE_BOUND('',#216,.T.);
#189=FACE_BOUND('',#223,.T.);
#190=FACE_BOUND('',#224,.T.);
#191=FACE_BOUND('',#225,.T.);
#192=FACE_BOUND('',#226,.T.);
#193=FACE_BOUND('',#227,.T.);
#194=FACE_BOUND('',#228,.T.);
#195=FACE_BOUND('',#229,.T.);
#196=FACE_BOUND('',#230,.T.);
#197=FACE_BOUND('',#231,.T.);
#198=FACE_BOUND('',#232,.T.);
#199=FACE_BOUND('',#233,.T.);
#200=FACE_BOUND('',#234,.T.);
#201=FACE_BOUND('',#235,.T.);
#202=FACE_BOUND('',#236,.T.);
#203=FACE_BOUND('',#237,.T.);
#204=FACE_BOUND('',#238,.T.);
#205=FACE_BOUND('',#239,.T.);
#206=FACE_BOUND('',#240,.T.);
#207=FACE_BOUND('',#241,.T.);
#208=FACE_BOUND('',#242,.T.);
#209=FACE_BOUND('',#243,.T.);
#210=FACE_BOUND('',#244,.T.);
#211=EDGE_LOOP('',(#245));
#212=EDGE_LOOP('',(#246,#247,#248,#249,#250,#251));
#213=EDGE_LOOP('',(#252));
#214=EDGE_LOOP('',(#253,#254,#255,#256,#257,#258));
#215=EDGE_LOOP('',(#259));
#216=EDGE_LOOP('',(#260));
#217=EDGE_LOOP('',(#261,#262,#263,#264));
#218=EDGE_LOOP('',(#265,#266,#267,#268));
#219=EDGE_LOOP('',(#269,#270,#271,#272));
#220=EDGE_LOOP('',(#273,#274,#275,#276));
#221=EDGE_LOOP('',(#277,#278,#279,#280));
#222=EDGE_LOOP('',(#281,#282,#283,#284));
#223=EDGE_LOOP('',(#285));
#224=EDGE_LOOP('',(#286));
#225=EDGE_LOOP('',(#287));
#226=EDGE_LOOP('',(#288));
#227=EDGE_LOOP('',(#289));
#228=EDGE_LOOP('',(#290));
#229=EDGE_LOOP('',(#291));
#230=EDGE_LOOP('',(#292));
#231=EDGE_LOOP('',(#293));
#232=EDGE_LOOP('',(#294));
#233=EDGE_LOOP('',(#295));
#234=EDGE_LOOP('',(#296));
#235=EDGE_LOOP('',(#297));
#236=EDGE_LOOP('',(#298));
#237=EDGE_LOOP('',(#299));
#238=EDGE_LOOP('',(#300));
#239=EDGE_LOOP('',(#301));
#240=EDGE_LOOP('',(#302));
#241=EDGE_LOOP('',(#303));
#242=EDGE_LOOP('',(#304));
#243=EDGE_LOOP('',(#305));
#244=EDGE_LOOP('',(#306));
#245=ORIENTED_EDGE('',*,*,#332,.F.);
#246=ORIENTED_EDGE('',*,*,#333,.F.);
#247=ORIENTED_EDGE('',*,*,#334,.T.);
#248=ORIENTED_EDGE('',*,*,#335,.T.);
#249=ORIENTED_EDGE('',*,*,#336,.T.);
#250=ORIENTED_EDGE('',*,*,#337,.T.);
#251=ORIENTED_EDGE('',*,*,#338,.T.);
#252=ORIENTED_EDGE('',*,*,#339,.F.);
#253=ORIENTED_EDGE('',*,*,#340,.F.);
#254=ORIENTED_EDGE('',*,*,#341,.F.);
#255=ORIENTED_EDGE('',*,*,#342,.F.);
#256=ORIENTED_EDGE('',*,*,#343,.F.);
#257=ORIENTED_EDGE('',*,*,#344,.F.);
#258=ORIENTED_EDGE('',*,*,#345,.F.);
#259=ORIENTED_EDGE('',*,*,#332,.T.);
#260=ORIENTED_EDGE('',*,*,#339,.T.);
#261=ORIENTED_EDGE('',*,*,#334,.F.);
#262=ORIENTED_EDGE('',*,*,#346,.T.);
#263=ORIENTED_EDGE('',*,*,#345,.T.);
#264=ORIENTED_EDGE('',*,*,#347,.T.);
#265=ORIENTED_EDGE('',*,*,#344,.T.);
#266=ORIENTED_EDGE('',*,*,#348,.T.);
#267=ORIENTED_EDGE('',*,*,#335,.F.);
#268=ORIENTED_EDGE('',*,*,#347,.F.);
#269=ORIENTED_EDGE('',*,*,#343,.T.);
#270=ORIENTED_EDGE('',*,*,#349,.T.);
#271=ORIENTED_EDGE('',*,*,#336,.F.);
#272=ORIENTED_EDGE('',*,*,#348,.F.);
#273=ORIENTED_EDGE('',*,*,#342,.T.);
#274=ORIENTED_EDGE('',*,*,#350,.T.);
#275=ORIENTED_EDGE('',*,*,#337,.F.);
#276=ORIENTED_EDGE('',*,*,#349,.F.);
#277=ORIENTED_EDGE('',*,*,#341,.T.);
#278=ORIENTED_EDGE('',*,*,#351,.T.);
#279=ORIENTED_EDGE('',*,*,#338,.F.);
#280=ORIENTED_EDGE('',*,*,#350,.F.);
#281=ORIENTED_EDGE('',*,*,#346,.F.);
#282=ORIENTED_EDGE('',*,*,#333,.T.);
#283=ORIENTED_EDGE('',*,*,#351,.F.);
#284=ORIENTED_EDGE('',*,*,#340,.T.);
#285=ORIENTED_EDGE('',*,*,#352,.F.);
#286=ORIENTED_EDGE('',*,*,#353,.T.);
#287=ORIENTED_EDGE('',*,*,#354,.T.);
#288=ORIENTED_EDGE('',*,*,#355,.T.);
#289=ORIENTED_EDGE('',*,*,#356,.F.);
#290=ORIENTED_EDGE('',*,*,#357,.T.);
#291=ORIENTED_EDGE('',*,*,#356,.T.);
#292=ORIENTED_EDGE('',*,*,#353,.F.);
#293=ORIENTED_EDGE('',*,*,#354,.F.);
#294=ORIENTED_EDGE('',*,*,#352,.T.);
#295=ORIENTED_EDGE('',*,*,#357,.F.);
#296=ORIENTED_EDGE('',*,*,#355,.F.);
#297=ORIENTED_EDGE('',*,*,#358,.T.);
#298=ORIENTED_EDGE('',*,*,#359,.F.);
#299=ORIENTED_EDGE('',*,*,#360,.T.);
#300=ORIENTED_EDGE('',*,*,#358,.F.);
#301=ORIENTED_EDGE('',*,*,#361,.T.);
#302=ORIENTED_EDGE('',*,*,#360,.F.);
#303=ORIENTED_EDGE('',*,*,#362,.T.);
#304=ORIENTED_EDGE('',*,*,#361,.F.);
#305=ORIENTED_EDGE('',*,*,#359,.T.);
#306=ORIENTED_EDGE('',*,*,#362,.F.);
#307=VERTEX_POINT('',#498);
#308=VERTEX_POINT('',#500);
#309=VERTEX_POINT('',#501);
#310=VERTEX_POINT('',#503);
#311=VERTEX_POINT('',#505);
#312=VERTEX_POINT('',#507);
#313=VERTEX_POINT('',#509);
#314=VERTEX_POINT('',#513);
#315=VERTEX_POINT('',#515);
#316=VERTEX_POINT('',#516);
#317=VERTEX_POINT('',#518);
#318=VERTEX_POINT('',#520);
#319=VERTEX_POINT('',#522);
#320=VERTEX_POINT('',#524);
#321=VERTEX_POINT('',#541);
#322=VERTEX_POINT('',#543);
#323=VERTEX_POINT('',#546);
#324=VERTEX_POINT('',#548);
#325=VERTEX_POINT('',#551);
#326=VERTEX_POINT('',#553);
#327=VERTEX_POINT('',#559);
#328=VERTEX_POINT('',#561);
#329=VERTEX_POINT('',#564);
#330=VERTEX_POINT('',#567);
#331=VERTEX_POINT('',#570);
#332=EDGE_CURVE('',#307,#307,#363,.T.);
#333=EDGE_CURVE('',#308,#309,#147,.T.);
#334=EDGE_CURVE('',#308,#310,#148,.T.);
#335=EDGE_CURVE('',#310,#311,#149,.T.);
#336=EDGE_CURVE('',#311,#312,#150,.T.);
#337=EDGE_CURVE('',#312,#313,#151,.T.);
#338=EDGE_CURVE('',#313,#309,#152,.T.);
#339=EDGE_CURVE('',#314,#314,#364,.T.);
#340=EDGE_CURVE('',#315,#316,#153,.T.);
#341=EDGE_CURVE('',#317,#315,#154,.T.);
#342=EDGE_CURVE('',#318,#317,#155,.T.);
#343=EDGE_CURVE('',#319,#318,#156,.T.);
#344=EDGE_CURVE('',#320,#319,#157,.T.);
#345=EDGE_CURVE('',#316,#320,#158,.T.);
#346=EDGE_CURVE('',#308,#316,#159,.T.);
#347=EDGE_CURVE('',#320,#310,#160,.T.);
#348=EDGE_CURVE('',#319,#311,#161,.T.);
#349=EDGE_CURVE('',#318,#312,#162,.T.);
#350=EDGE_CURVE('',#317,#313,#163,.T.);
#351=EDGE_CURVE('',#315,#309,#164,.T.);
#352=EDGE_CURVE('',#321,#321,#365,.T.);
#353=EDGE_CURVE('',#322,#322,#366,.T.);
#354=EDGE_CURVE('',#323,#323,#367,.T.);
#355=EDGE_CURVE('',#324,#324,#368,.T.);
#356=EDGE_CURVE('',#325,#325,#369,.T.);
#357=EDGE_CURVE('',#326,#326,#370,.T.);
#358=EDGE_CURVE('',#327,#327,#371,.T.);
#359=EDGE_CURVE('',#328,#328,#372,.T.);
#360=EDGE_CURVE('',#329,#329,#373,.T.);
#361=EDGE_CURVE('',#330,#330,#374,.T.);
#362=EDGE_CURVE('',#331,#331,#375,.T.);
#363=CIRCLE('',#377,12.2);
#364=CIRCLE('',#379,12.2);
#365=CIRCLE('',#388,17.5);
#366=CIRCLE('',#389,13.22);
#367=CIRCLE('',#391,17.5);
#368=CIRCLE('',#392,10.);
#369=CIRCLE('',#394,13.22);
#370=CIRCLE('',#395,10.);
#371=CIRCLE('',#400,21.5);
#372=CIRCLE('',#401,22.5);
#373=CIRCLE('',#403,14.);
#374=CIRCLE('',#405,14.);
#375=CIRCLE('',#407,22.5);
#376=AXIS2_PLACEMENT_3D('',#496,#410,#411);
#377=AXIS2_PLACEMENT_3D('',#497,#412,#413);
#378=AXIS2_PLACEMENT_3D('',#511,#420,#421);
#379=AXIS2_PLACEMENT_3D('',#512,#422,#423);
#380=AXIS2_PLACEMENT_3D('',#526,#430,#431);
#381=AXIS2_PLACEMENT_3D('',#527,#432,#433);
#382=AXIS2_PLACEMENT_3D('',#530,#436,#437);
#383=AXIS2_PLACEMENT_3D('',#532,#439,#440);
#384=AXIS2_PLACEMENT_3D('',#534,#442,#443);
#385=AXIS2_PLACEMENT_3D('',#536,#445,#446);
#386=AXIS2_PLACEMENT_3D('',#538,#448,#449);
#387=AXIS2_PLACEMENT_3D('',#539,#450,#451);
#388=AXIS2_PLACEMENT_3D('',#540,#452,#453);
#389=AXIS2_PLACEMENT_3D('',#542,#454,#455);
#390=AXIS2_PLACEMENT_3D('',#544,#456,#457);
#391=AXIS2_PLACEMENT_3D('',#545,#458,#459);
#392=AXIS2_PLACEMENT_3D('',#547,#460,#461);
#393=AXIS2_PLACEMENT_3D('',#549,#462,#463);
#394=AXIS2_PLACEMENT_3D('',#550,#464,#465);
#395=AXIS2_PLACEMENT_3D('',#552,#466,#467);
#396=AXIS2_PLACEMENT_3D('',#554,#468,#469);
#397=AXIS2_PLACEMENT_3D('',#555,#470,#471);
#398=AXIS2_PLACEMENT_3D('',#556,#472,#473);
#399=AXIS2_PLACEMENT_3D('',#557,#474,#475);
#400=AXIS2_PLACEMENT_3D('',#558,#476,#477);
#401=AXIS2_PLACEMENT_3D('',#560,#478,#479);
#402=AXIS2_PLACEMENT_3D('',#562,#480,#481);
#403=AXIS2_PLACEMENT_3D('',#563,#482,#483);
#404=AXIS2_PLACEMENT_3D('',#565,#484,#485);
#405=AXIS2_PLACEMENT_3D('',#566,#486,#487);
#406=AXIS2_PLACEMENT_3D('',#568,#488,#489);
#407=AXIS2_PLACEMENT_3D('',#569,#490,#491);
#408=AXIS2_PLACEMENT_3D('',#571,#492,#493);
#409=AXIS2_PLACEMENT_3D('',#572,#494,#495);
#410=DIRECTION('',(0.,0.,1.));
#411=DIRECTION('',(1.,0.,0.));
#412=DIRECTION('',(0.,1.,0.));
#413=DIRECTION('',(-0.866025403784439,0.,-0.5));
#414=DIRECTION('',(4.44089209850063E-016,0.,-1.));
#415=DIRECTION('',(0.866025403784439,0.,0.5));
#416=DIRECTION('',(0.866025403784439,0.,-0.5));
#417=DIRECTION('',(0.,0.,-1.));
#418=DIRECTION('',(-0.866025403784439,0.,-0.5));
#419=DIRECTION('',(-0.866025403784439,0.,0.5));
#420=DIRECTION('',(0.,1.,0.));
#421=DIRECTION('',(-0.866025403784439,0.,-0.5));
#422=DIRECTION('',(0.,-1.,0.));
#423=DIRECTION('',(0.866025403784439,0.,0.5));
#424=DIRECTION('',(-4.44089209850063E-016,0.,1.));
#425=DIRECTION('',(-0.866025403784439,0.,0.5));
#426=DIRECTION('',(-0.866025403784439,0.,-0.5));
#427=DIRECTION('',(0.,0.,-1.));
#428=DIRECTION('',(0.866025403784439,0.,-0.5));
#429=DIRECTION('',(0.866025403784439,0.,0.5));
#430=DIRECTION('',(0.,-1.,0.));
#431=DIRECTION('',(0.866025403784439,0.,0.5));
#432=DIRECTION('',(0.,-1.,0.));
#433=DIRECTION('',(0.866025403784439,0.,0.5));
#434=DIRECTION('',(0.,-1.,0.));
#435=DIRECTION('',(0.,1.,0.));
#436=DIRECTION('',(0.5,0.,-0.866025403784439));
#437=DIRECTION('',(-0.866025403784439,0.,-0.5));
#438=DIRECTION('',(0.,1.,0.));
#439=DIRECTION('',(-0.5,0.,-0.866025403784439));
#440=DIRECTION('',(-0.866025403784439,0.,0.5));
#441=DIRECTION('',(0.,1.,0.));
#442=DIRECTION('',(-1.,0.,0.));
#443=DIRECTION('',(0.,0.,1.));
#444=DIRECTION('',(0.,1.,0.));
#445=DIRECTION('',(-0.5,0.,0.866025403784439));
#446=DIRECTION('',(0.866025403784439,0.,0.5));
#447=DIRECTION('',(0.,1.,0.));
#448=DIRECTION('',(0.5,0.,0.866025403784439));
#449=DIRECTION('',(0.866025403784439,0.,-0.5));
#450=DIRECTION('',(1.,0.,4.44089209850063E-016));
#451=DIRECTION('',(4.44089209850063E-016,0.,-1.));
#452=DIRECTION('',(0.,-1.,0.));
#453=DIRECTION('',(1.,0.,0.));
#454=DIRECTION('',(0.,-1.,0.));
#455=DIRECTION('',(-1.,0.,0.));
#456=DIRECTION('',(0.,-1.,0.));
#457=DIRECTION('',(-1.,1.99196817936862E-017,0.));
#458=DIRECTION('',(0.,-1.,0.));
#459=DIRECTION('',(1.,0.,0.));
#460=DIRECTION('',(0.,1.,0.));
#461=DIRECTION('',(-1.,0.,0.));
#462=DIRECTION('',(0.,-1.,0.));
#463=DIRECTION('',(-1.,0.,0.));
#464=DIRECTION('',(0.,-1.,0.));
#465=DIRECTION('',(1.,0.,0.));
#466=DIRECTION('',(0.,-1.,0.));
#467=DIRECTION('',(1.,0.,0.));
#468=DIRECTION('',(0.,1.,0.));
#469=DIRECTION('',(1.,0.,0.));
#470=DIRECTION('',(0.,1.,0.));
#471=DIRECTION('',(1.,0.,0.));
#472=DIRECTION('',(0.,1.,0.));
#473=DIRECTION('',(1.,0.,0.));
#474=DIRECTION('',(0.,1.,0.));
#475=DIRECTION('',(1.,0.,0.));
#476=DIRECTION('',(0.,1.,0.));
#477=DIRECTION('',(0.,0.,1.));
#478=DIRECTION('',(0.,1.,0.));
#479=DIRECTION('',(0.,0.,1.));
#480=DIRECTION('',(0.,-1.,0.));
#481=DIRECTION('',(0.,0.,-1.));
#482=DIRECTION('',(0.,1.,0.));
#483=DIRECTION('',(0.,0.,1.));
#484=DIRECTION('',(0.,-1.,0.));
#485=DIRECTION('',(0.,0.,-1.));
#486=DIRECTION('',(0.,1.,0.));
#487=DIRECTION('',(0.,0.,1.));
#488=DIRECTION('',(0.,1.,0.));
#489=DIRECTION('',(0.,0.,1.));
#490=DIRECTION('',(0.,1.,0.));
#491=DIRECTION('',(0.,0.,1.));
#492=DIRECTION('',(0.,1.,0.));
#493=DIRECTION('',(0.,0.,1.));
#494=DIRECTION('',(0.,1.,0.));
#495=DIRECTION('',(0.,0.,1.));
#496=CARTESIAN_POINT('',(0.,0.,0.));
#497=CARTESIAN_POINT('',(0.,12.,0.));
#498=CARTESIAN_POINT('',(-10.5655099261702,12.,-6.1));
#499=CARTESIAN_POINT('',(-16.,12.,-6.18773660453865E-015));
#500=CARTESIAN_POINT('',(-16.,12.,9.23760430703401));
#501=CARTESIAN_POINT('',(-16.,12.,-9.23760430703401));
#502=CARTESIAN_POINT('',(13.650635094611,12.,26.356406460551));
#503=CARTESIAN_POINT('',(8.23993651088983E-015,12.,18.475208614068));
#504=CARTESIAN_POINT('',(29.650635094611,12.,1.35640646055101));
#505=CARTESIAN_POINT('',(16.,12.,9.23760430703401));
#506=CARTESIAN_POINT('',(16.,12.,-25.));
#507=CARTESIAN_POINT('',(16.,12.,-9.23760430703401));
#508=CARTESIAN_POINT('',(-13.650635094611,12.,-26.356406460551));
#509=CARTESIAN_POINT('',(9.97465998686664E-015,12.,-18.475208614068));
#510=CARTESIAN_POINT('',(-29.650635094611,12.,-1.35640646055102));
#511=CARTESIAN_POINT('',(-4.33680868994202E-016,12.,7.5115729936858E-016));
#512=CARTESIAN_POINT('',(0.,5.,0.));
#513=CARTESIAN_POINT('',(10.5655099261702,5.,6.1));
#514=CARTESIAN_POINT('',(-16.,5.,-6.18773660453865E-015));
#515=CARTESIAN_POINT('',(-16.,5.,-9.23760430703401));
#516=CARTESIAN_POINT('',(-16.,5.,9.23760430703401));
#517=CARTESIAN_POINT('',(-7.99999999999999,5.,-13.856406460551));
#518=CARTESIAN_POINT('',(8.23993651088983E-015,5.,-18.475208614068));
#519=CARTESIAN_POINT('',(8.,5.,-13.856406460551));
#520=CARTESIAN_POINT('',(16.,5.,-9.23760430703401));
#521=CARTESIAN_POINT('',(16.,5.,1.61851903735698E-015));
#522=CARTESIAN_POINT('',(16.,5.,9.23760430703401));
#523=CARTESIAN_POINT('',(8.,5.,13.856406460551));
#524=CARTESIAN_POINT('',(6.50521303491303E-015,5.,18.475208614068));
#525=CARTESIAN_POINT('',(-7.99999999999999,5.,13.856406460551));
#526=CARTESIAN_POINT('',(-4.33680868994202E-016,5.,7.5115729936858E-016));
#527=CARTESIAN_POINT('',(0.,12.,0.));
#528=CARTESIAN_POINT('',(-16.,12.,9.23760430703401));
#529=CARTESIAN_POINT('',(6.50521303491303E-015,12.,18.475208614068));
#530=CARTESIAN_POINT('',(13.650635094611,12.,26.356406460551));
#531=CARTESIAN_POINT('',(16.,12.,9.23760430703401));
#532=CARTESIAN_POINT('',(29.650635094611,12.,1.35640646055101));
#533=CARTESIAN_POINT('',(16.,12.,-9.23760430703401));
#534=CARTESIAN_POINT('',(16.,12.,-25.));
#535=CARTESIAN_POINT('',(8.23993651088983E-015,12.,-18.475208614068));
#536=CARTESIAN_POINT('',(-13.650635094611,12.,-26.356406460551));
#537=CARTESIAN_POINT('',(-16.,12.,-9.23760430703401));
#538=CARTESIAN_POINT('',(-29.650635094611,12.,-1.35640646055102));
#539=CARTESIAN_POINT('',(-16.,12.,25.));
#540=CARTESIAN_POINT('',(0.,0.500000000000001,0.));
#541=CARTESIAN_POINT('',(17.5,0.500000000000001,0.));
#542=CARTESIAN_POINT('',(0.,2.05779260265935,0.));
#543=CARTESIAN_POINT('',(-13.22,2.05779260265935,0.));
#544=CARTESIAN_POINT('',(0.,0.500000000000001,0.));
#545=CARTESIAN_POINT('',(0.,8.67361737988404E-016,0.));
#546=CARTESIAN_POINT('',(17.5,8.67361737988404E-016,0.));
#547=CARTESIAN_POINT('',(0.,8.67361737988404E-016,0.));
#548=CARTESIAN_POINT('',(-10.,8.67361737988404E-016,0.));
#549=CARTESIAN_POINT('',(0.,8.67361737988404E-016,0.));
#550=CARTESIAN_POINT('',(0.,34.,0.));
#551=CARTESIAN_POINT('',(13.22,34.,0.));
#552=CARTESIAN_POINT('',(0.,34.,0.));
#553=CARTESIAN_POINT('',(10.,34.,0.));
#554=CARTESIAN_POINT('',(0.,34.,0.));
#555=CARTESIAN_POINT('',(0.,2.1,0.));
#556=CARTESIAN_POINT('',(0.,8.67361737988404E-016,0.));
#557=CARTESIAN_POINT('',(0.,-3.46944695195361E-015,0.));
#558=CARTESIAN_POINT('',(0.,0.,0.));
#559=CARTESIAN_POINT('',(0.,0.,21.5));
#560=CARTESIAN_POINT('',(0.,0.,0.));
#561=CARTESIAN_POINT('',(0.,0.,22.5));
#562=CARTESIAN_POINT('',(22.5,8.67361737988404E-016,0.));
#563=CARTESIAN_POINT('',(0.,4.3301270189222,0.));
#564=CARTESIAN_POINT('',(0.,4.3301270189222,14.));
#565=CARTESIAN_POINT('',(0.,0.,0.));
#566=CARTESIAN_POINT('',(0.,5.,0.));
#567=CARTESIAN_POINT('',(0.,5.,14.));
#568=CARTESIAN_POINT('',(0.,28.7105028832213,0.));
#569=CARTESIAN_POINT('',(0.,5.,0.));
#570=CARTESIAN_POINT('',(0.,5.,22.5));
#571=CARTESIAN_POINT('',(14.,5.,0.));
#572=CARTESIAN_POINT('',(0.,28.7105028832213,0.));
#573=(
GEOMETRIC_REPRESENTATION_CONTEXT(3)
GLOBAL_UNCERTAINTY_ASSIGNED_CONTEXT((#574))
GLOBAL_UNIT_ASSIGNED_CONTEXT((#580,#576,#575))
REPRESENTATION_CONTEXT('METU_E01V-2002_ST-K_3-4',
'TOP_LEVEL_ASSEMBLY_PART')
);
#574=UNCERTAINTY_MEASURE_WITH_UNIT(LENGTH_MEASURE(2.E-005),#580,
'DISTANCE_ACCURACY_VALUE','Maximum Tolerance applied to model');
#575=(
NAMED_UNIT(*)
SI_UNIT($,.STERADIAN.)
SOLID_ANGLE_UNIT()
);
#576=(
CONVERSION_BASED_UNIT('DEGREE',#578)
NAMED_UNIT(#577)
PLANE_ANGLE_UNIT()
);
#577=DIMENSIONAL_EXPONENTS(0.,0.,0.,0.,0.,0.,0.);
#578=PLANE_ANGLE_MEASURE_WITH_UNIT(PLANE_ANGLE_MEASURE(0.0174532925),#579);
#579=(
NAMED_UNIT(*)
PLANE_ANGLE_UNIT()
SI_UNIT($,.RADIAN.)
);
#580=(
LENGTH_UNIT()
NAMED_UNIT(*)
SI_UNIT(.MILLI.,.METRE.)
);
ENDSEC;
END-ISO-10303-21;
