ISO-10303-21;
HEADER;
/* Generated by software containing ST-Developer
 * from STEP Tools, Inc. (www.steptools.com) 
 */
/* OPTION: using custom schema-name function */

FILE_DESCRIPTION(
/* description */ (''),
/* implementation_level */ '2;1');

FILE_NAME(
/* name */ 'METU_E01V-1003_ST-G_1.stp',
/* time_stamp */ '2018-10-05T14:25:26+02:00',
/* author */ (''),
/* organization */ (''),
/* preprocessor_version */ 'ST-DEVELOPER v11',
/* originating_system */ 'SIEMENS UGS NX 6.0',
/* authorisation */ '');

FILE_SCHEMA (('CONFIG_CONTROL_DESIGN'));
ENDSEC;

DATA;
#10=SHAPE_REPRESENTATION_RELATIONSHIP('None',
'relationship between gars64E343aw-None and gars64E343aw-None',#94,#11);
#11=ADVANCED_BREP_SHAPE_REPRESENTATION('gars64E343aw-None',(#98,#99,#100),
#553);
#12=CC_DESIGN_APPROVAL(#24,(#82));
#13=CC_DESIGN_APPROVAL(#25,(#84));
#14=CC_DESIGN_APPROVAL(#26,(#31));
#15=APPROVAL_PERSON_ORGANIZATION(#69,#24,#18);
#16=APPROVAL_PERSON_ORGANIZATION(#70,#25,#19);
#17=APPROVAL_PERSON_ORGANIZATION(#71,#26,#20);
#18=APPROVAL_ROLE('approver');
#19=APPROVAL_ROLE('approver');
#20=APPROVAL_ROLE('approver');
#21=APPROVAL_DATE_TIME(#39,#24);
#22=APPROVAL_DATE_TIME(#40,#25);
#23=APPROVAL_DATE_TIME(#41,#26);
#24=APPROVAL(#27,' ');
#25=APPROVAL(#28,' ');
#26=APPROVAL(#29,' ');
#27=APPROVAL_STATUS('not_yet_approved');
#28=APPROVAL_STATUS('not_yet_approved');
#29=APPROVAL_STATUS('not_yet_approved');
#30=CC_DESIGN_SECURITY_CLASSIFICATION(#31,(#84));
#31=SECURITY_CLASSIFICATION(' ',' ',#32);
#32=SECURITY_CLASSIFICATION_LEVEL('confidential');
#33=CC_DESIGN_DATE_AND_TIME_ASSIGNMENT(#37,#35,(#82));
#34=CC_DESIGN_DATE_AND_TIME_ASSIGNMENT(#38,#36,(#31));
#35=DATE_TIME_ROLE('creation_date');
#36=DATE_TIME_ROLE('classification_date');
#37=DATE_AND_TIME(#52,#42);
#38=DATE_AND_TIME(#53,#43);
#39=DATE_AND_TIME(#54,#44);
#40=DATE_AND_TIME(#55,#45);
#41=DATE_AND_TIME(#56,#46);
#42=LOCAL_TIME(0,0,0.,#47);
#43=LOCAL_TIME(0,0,0.,#48);
#44=LOCAL_TIME(0,0,0.,#49);
#45=LOCAL_TIME(0,0,0.,#50);
#46=LOCAL_TIME(0,0,0.,#51);
#47=COORDINATED_UNIVERSAL_TIME_OFFSET(0,0,.BEHIND.);
#48=COORDINATED_UNIVERSAL_TIME_OFFSET(0,0,.BEHIND.);
#49=COORDINATED_UNIVERSAL_TIME_OFFSET(0,0,.BEHIND.);
#50=COORDINATED_UNIVERSAL_TIME_OFFSET(0,0,.BEHIND.);
#51=COORDINATED_UNIVERSAL_TIME_OFFSET(0,0,.BEHIND.);
#52=CALENDAR_DATE(0,1,1);
#53=CALENDAR_DATE(0,1,1);
#54=CALENDAR_DATE(0,1,1);
#55=CALENDAR_DATE(0,1,1);
#56=CALENDAR_DATE(0,1,1);
#57=CC_DESIGN_PERSON_AND_ORGANIZATION_ASSIGNMENT(#65,#61,(#82,#84));
#58=CC_DESIGN_PERSON_AND_ORGANIZATION_ASSIGNMENT(#66,#62,(#86));
#59=CC_DESIGN_PERSON_AND_ORGANIZATION_ASSIGNMENT(#67,#63,(#84));
#60=CC_DESIGN_PERSON_AND_ORGANIZATION_ASSIGNMENT(#68,#64,(#31));
#61=PERSON_AND_ORGANIZATION_ROLE('creator');
#62=PERSON_AND_ORGANIZATION_ROLE('design_owner');
#63=PERSON_AND_ORGANIZATION_ROLE('design_supplier');
#64=PERSON_AND_ORGANIZATION_ROLE('classification_officer');
#65=PERSON_AND_ORGANIZATION(#79,#72);
#66=PERSON_AND_ORGANIZATION(#79,#73);
#67=PERSON_AND_ORGANIZATION(#79,#74);
#68=PERSON_AND_ORGANIZATION(#79,#75);
#69=PERSON_AND_ORGANIZATION(#79,#76);
#70=PERSON_AND_ORGANIZATION(#79,#77);
#71=PERSON_AND_ORGANIZATION(#79,#78);
#72=ORGANIZATION(' ',' ',' ');
#73=ORGANIZATION(' ',' ',' ');
#74=ORGANIZATION(' ',' ',' ');
#75=ORGANIZATION(' ',' ',' ');
#76=ORGANIZATION(' ',' ',' ');
#77=ORGANIZATION(' ',' ',' ');
#78=ORGANIZATION(' ',' ',' ');
#79=PERSON(' ',' ',' ',(' '),$,$);
#80=SHAPE_DEFINITION_REPRESENTATION(#81,#94);
#81=PRODUCT_DEFINITION_SHAPE('','',#82);
#82=PRODUCT_DEFINITION(' ','',#84,#83);
#83=DESIGN_CONTEXT('',#93,'design');
#84=PRODUCT_DEFINITION_FORMATION_WITH_SPECIFIED_SOURCE(' ',' ',#86,.NOT_KNOWN.);
#85=PRODUCT_RELATED_PRODUCT_CATEGORY('detail','',(#86));
#86=PRODUCT('gars64E343aw','gars64E343aw',' ',(#91));
#87=PRODUCT_CATEGORY_RELATIONSHIP(' ',' ',#89,#90);
#88=PRODUCT_CATEGORY_RELATIONSHIP('','',#90,#85);
#89=PRODUCT_CATEGORY('part',' ');
#90=PRODUCT_CATEGORY(' ','');
#91=MECHANICAL_CONTEXT(' ',#93,'mechanical');
#92=APPLICATION_PROTOCOL_DEFINITION('international standard',
'config_control_design',1994,#93);
#93=APPLICATION_CONTEXT(
'configuration controlled 3D designs of mechanical parts and assemblies');
#94=SHAPE_REPRESENTATION('gars64E343aw-None',(#365),#553);
#95=CONICAL_SURFACE('',#379,21.,70.);
#96=CONICAL_SURFACE('',#393,17.5,75.);
#97=CONICAL_SURFACE('',#396,43.,75.);
#98=MANIFOLD_SOLID_BREP('',#101);
#99=MANIFOLD_SOLID_BREP('',#102);
#100=MANIFOLD_SOLID_BREP('',#103);
#101=CLOSED_SHELL('',(#116,#117,#118,#119,#120,#121,#122,#123,#124));
#102=CLOSED_SHELL('',(#125,#126,#127,#128,#129,#130));
#103=CLOSED_SHELL('',(#131,#132,#133,#134));
#104=FACE_OUTER_BOUND('',#213,.T.);
#105=FACE_OUTER_BOUND('',#214,.T.);
#106=FACE_OUTER_BOUND('',#215,.T.);
#107=FACE_OUTER_BOUND('',#216,.T.);
#108=FACE_OUTER_BOUND('',#217,.T.);
#109=FACE_OUTER_BOUND('',#218,.T.);
#110=CYLINDRICAL_SURFACE('',#370,15.25);
#111=CYLINDRICAL_SURFACE('',#383,16.625);
#112=CYLINDRICAL_SURFACE('',#385,21.);
#113=CYLINDRICAL_SURFACE('',#388,13.);
#114=CYLINDRICAL_SURFACE('',#391,17.5);
#115=CYLINDRICAL_SURFACE('',#395,43.);
#116=ADVANCED_FACE('',(#181,#182),#135,.T.);
#117=ADVANCED_FACE('',(#183,#184),#136,.T.);
#118=ADVANCED_FACE('',(#185,#186),#110,.F.);
#119=ADVANCED_FACE('',(#104),#137,.F.);
#120=ADVANCED_FACE('',(#105),#138,.F.);
#121=ADVANCED_FACE('',(#106),#139,.F.);
#122=ADVANCED_FACE('',(#107),#140,.F.);
#123=ADVANCED_FACE('',(#108),#141,.F.);
#124=ADVANCED_FACE('',(#109),#142,.F.);
#125=ADVANCED_FACE('',(#187,#188),#95,.T.);
#126=ADVANCED_FACE('',(#189,#190),#143,.T.);
#127=ADVANCED_FACE('',(#191,#192),#111,.T.);
#128=ADVANCED_FACE('',(#193,#194),#112,.T.);
#129=ADVANCED_FACE('',(#195,#196),#144,.T.);
#130=ADVANCED_FACE('',(#197,#198),#113,.F.);
#131=ADVANCED_FACE('',(#199,#200),#114,.F.);
#132=ADVANCED_FACE('',(#201,#202),#96,.F.);
#133=ADVANCED_FACE('',(#203,#204),#115,.T.);
#134=ADVANCED_FACE('',(#205,#206),#97,.T.);
#135=PLANE('',#367);
#136=PLANE('',#369);
#137=PLANE('',#371);
#138=PLANE('',#372);
#139=PLANE('',#373);
#140=PLANE('',#374);
#141=PLANE('',#375);
#142=PLANE('',#376);
#143=PLANE('',#382);
#144=PLANE('',#387);
#145=LINE('',#482,#163);
#146=LINE('',#485,#164);
#147=LINE('',#487,#165);
#148=LINE('',#489,#166);
#149=LINE('',#491,#167);
#150=LINE('',#493,#168);
#151=LINE('',#497,#169);
#152=LINE('',#500,#170);
#153=LINE('',#502,#171);
#154=LINE('',#504,#172);
#155=LINE('',#506,#173);
#156=LINE('',#508,#174);
#157=LINE('',#511,#175);
#158=LINE('',#512,#176);
#159=LINE('',#514,#177);
#160=LINE('',#516,#178);
#161=LINE('',#518,#179);
#162=LINE('',#520,#180);
#163=VECTOR('',#401,1.);
#164=VECTOR('',#402,1.);
#165=VECTOR('',#403,1.);
#166=VECTOR('',#404,1.);
#167=VECTOR('',#405,1.);
#168=VECTOR('',#406,1.);
#169=VECTOR('',#411,1.);
#170=VECTOR('',#412,1.);
#171=VECTOR('',#413,1.);
#172=VECTOR('',#414,1.);
#173=VECTOR('',#415,1.);
#174=VECTOR('',#416,1.);
#175=VECTOR('',#421,1.);
#176=VECTOR('',#422,1.);
#177=VECTOR('',#425,1.);
#178=VECTOR('',#428,1.);
#179=VECTOR('',#431,1.);
#180=VECTOR('',#434,1.);
#181=FACE_BOUND('',#207,.T.);
#182=FACE_BOUND('',#208,.T.);
#183=FACE_BOUND('',#209,.T.);
#184=FACE_BOUND('',#210,.T.);
#185=FACE_BOUND('',#211,.T.);
#186=FACE_BOUND('',#212,.T.);
#187=FACE_BOUND('',#219,.T.);
#188=FACE_BOUND('',#220,.T.);
#189=FACE_BOUND('',#221,.T.);
#190=FACE_BOUND('',#222,.T.);
#191=FACE_BOUND('',#223,.T.);
#192=FACE_BOUND('',#224,.T.);
#193=FACE_BOUND('',#225,.T.);
#194=FACE_BOUND('',#226,.T.);
#195=FACE_BOUND('',#227,.T.);
#196=FACE_BOUND('',#228,.T.);
#197=FACE_BOUND('',#229,.T.);
#198=FACE_BOUND('',#230,.T.);
#199=FACE_BOUND('',#231,.T.);
#200=FACE_BOUND('',#232,.T.);
#201=FACE_BOUND('',#233,.T.);
#202=FACE_BOUND('',#234,.T.);
#203=FACE_BOUND('',#235,.T.);
#204=FACE_BOUND('',#236,.T.);
#205=FACE_BOUND('',#237,.T.);
#206=FACE_BOUND('',#238,.T.);
#207=EDGE_LOOP('',(#239));
#208=EDGE_LOOP('',(#240,#241,#242,#243,#244,#245));
#209=EDGE_LOOP('',(#246));
#210=EDGE_LOOP('',(#247,#248,#249,#250,#251,#252));
#211=EDGE_LOOP('',(#253));
#212=EDGE_LOOP('',(#254));
#213=EDGE_LOOP('',(#255,#256,#257,#258));
#214=EDGE_LOOP('',(#259,#260,#261,#262));
#215=EDGE_LOOP('',(#263,#264,#265,#266));
#216=EDGE_LOOP('',(#267,#268,#269,#270));
#217=EDGE_LOOP('',(#271,#272,#273,#274));
#218=EDGE_LOOP('',(#275,#276,#277,#278));
#219=EDGE_LOOP('',(#279));
#220=EDGE_LOOP('',(#280));
#221=EDGE_LOOP('',(#281));
#222=EDGE_LOOP('',(#282));
#223=EDGE_LOOP('',(#283));
#224=EDGE_LOOP('',(#284));
#225=EDGE_LOOP('',(#285));
#226=EDGE_LOOP('',(#286));
#227=EDGE_LOOP('',(#287));
#228=EDGE_LOOP('',(#288));
#229=EDGE_LOOP('',(#289));
#230=EDGE_LOOP('',(#290));
#231=EDGE_LOOP('',(#291));
#232=EDGE_LOOP('',(#292));
#233=EDGE_LOOP('',(#293));
#234=EDGE_LOOP('',(#294));
#235=EDGE_LOOP('',(#295));
#236=EDGE_LOOP('',(#296));
#237=EDGE_LOOP('',(#297));
#238=EDGE_LOOP('',(#298));
#239=ORIENTED_EDGE('',*,*,#323,.F.);
#240=ORIENTED_EDGE('',*,*,#324,.F.);
#241=ORIENTED_EDGE('',*,*,#325,.T.);
#242=ORIENTED_EDGE('',*,*,#326,.T.);
#243=ORIENTED_EDGE('',*,*,#327,.T.);
#244=ORIENTED_EDGE('',*,*,#328,.T.);
#245=ORIENTED_EDGE('',*,*,#329,.T.);
#246=ORIENTED_EDGE('',*,*,#330,.F.);
#247=ORIENTED_EDGE('',*,*,#331,.F.);
#248=ORIENTED_EDGE('',*,*,#332,.F.);
#249=ORIENTED_EDGE('',*,*,#333,.F.);
#250=ORIENTED_EDGE('',*,*,#334,.F.);
#251=ORIENTED_EDGE('',*,*,#335,.F.);
#252=ORIENTED_EDGE('',*,*,#336,.F.);
#253=ORIENTED_EDGE('',*,*,#323,.T.);
#254=ORIENTED_EDGE('',*,*,#330,.T.);
#255=ORIENTED_EDGE('',*,*,#325,.F.);
#256=ORIENTED_EDGE('',*,*,#337,.T.);
#257=ORIENTED_EDGE('',*,*,#336,.T.);
#258=ORIENTED_EDGE('',*,*,#338,.T.);
#259=ORIENTED_EDGE('',*,*,#335,.T.);
#260=ORIENTED_EDGE('',*,*,#339,.T.);
#261=ORIENTED_EDGE('',*,*,#326,.F.);
#262=ORIENTED_EDGE('',*,*,#338,.F.);
#263=ORIENTED_EDGE('',*,*,#334,.T.);
#264=ORIENTED_EDGE('',*,*,#340,.T.);
#265=ORIENTED_EDGE('',*,*,#327,.F.);
#266=ORIENTED_EDGE('',*,*,#339,.F.);
#267=ORIENTED_EDGE('',*,*,#333,.T.);
#268=ORIENTED_EDGE('',*,*,#341,.T.);
#269=ORIENTED_EDGE('',*,*,#328,.F.);
#270=ORIENTED_EDGE('',*,*,#340,.F.);
#271=ORIENTED_EDGE('',*,*,#332,.T.);
#272=ORIENTED_EDGE('',*,*,#342,.T.);
#273=ORIENTED_EDGE('',*,*,#329,.F.);
#274=ORIENTED_EDGE('',*,*,#341,.F.);
#275=ORIENTED_EDGE('',*,*,#337,.F.);
#276=ORIENTED_EDGE('',*,*,#324,.T.);
#277=ORIENTED_EDGE('',*,*,#342,.F.);
#278=ORIENTED_EDGE('',*,*,#331,.T.);
#279=ORIENTED_EDGE('',*,*,#343,.F.);
#280=ORIENTED_EDGE('',*,*,#344,.T.);
#281=ORIENTED_EDGE('',*,*,#345,.T.);
#282=ORIENTED_EDGE('',*,*,#346,.F.);
#283=ORIENTED_EDGE('',*,*,#346,.T.);
#284=ORIENTED_EDGE('',*,*,#344,.F.);
#285=ORIENTED_EDGE('',*,*,#347,.F.);
#286=ORIENTED_EDGE('',*,*,#343,.T.);
#287=ORIENTED_EDGE('',*,*,#348,.F.);
#288=ORIENTED_EDGE('',*,*,#347,.T.);
#289=ORIENTED_EDGE('',*,*,#348,.T.);
#290=ORIENTED_EDGE('',*,*,#345,.F.);
#291=ORIENTED_EDGE('',*,*,#349,.F.);
#292=ORIENTED_EDGE('',*,*,#350,.T.);
#293=ORIENTED_EDGE('',*,*,#351,.F.);
#294=ORIENTED_EDGE('',*,*,#349,.T.);
#295=ORIENTED_EDGE('',*,*,#352,.F.);
#296=ORIENTED_EDGE('',*,*,#351,.T.);
#297=ORIENTED_EDGE('',*,*,#350,.F.);
#298=ORIENTED_EDGE('',*,*,#352,.T.);
#299=VERTEX_POINT('',#481);
#300=VERTEX_POINT('',#483);
#301=VERTEX_POINT('',#484);
#302=VERTEX_POINT('',#486);
#303=VERTEX_POINT('',#488);
#304=VERTEX_POINT('',#490);
#305=VERTEX_POINT('',#492);
#306=VERTEX_POINT('',#496);
#307=VERTEX_POINT('',#498);
#308=VERTEX_POINT('',#499);
#309=VERTEX_POINT('',#501);
#310=VERTEX_POINT('',#503);
#311=VERTEX_POINT('',#505);
#312=VERTEX_POINT('',#507);
#313=VERTEX_POINT('',#524);
#314=VERTEX_POINT('',#526);
#315=VERTEX_POINT('',#529);
#316=VERTEX_POINT('',#531);
#317=VERTEX_POINT('',#535);
#318=VERTEX_POINT('',#538);
#319=VERTEX_POINT('',#542);
#320=VERTEX_POINT('',#544);
#321=VERTEX_POINT('',#547);
#322=VERTEX_POINT('',#550);
#323=EDGE_CURVE('',#299,#299,#353,.T.);
#324=EDGE_CURVE('',#300,#301,#145,.T.);
#325=EDGE_CURVE('',#300,#302,#146,.T.);
#326=EDGE_CURVE('',#302,#303,#147,.T.);
#327=EDGE_CURVE('',#303,#304,#148,.T.);
#328=EDGE_CURVE('',#304,#305,#149,.T.);
#329=EDGE_CURVE('',#305,#301,#150,.T.);
#330=EDGE_CURVE('',#306,#306,#354,.T.);
#331=EDGE_CURVE('',#307,#308,#151,.T.);
#332=EDGE_CURVE('',#309,#307,#152,.T.);
#333=EDGE_CURVE('',#310,#309,#153,.T.);
#334=EDGE_CURVE('',#311,#310,#154,.T.);
#335=EDGE_CURVE('',#312,#311,#155,.T.);
#336=EDGE_CURVE('',#308,#312,#156,.T.);
#337=EDGE_CURVE('',#300,#308,#157,.T.);
#338=EDGE_CURVE('',#312,#302,#158,.T.);
#339=EDGE_CURVE('',#311,#303,#159,.T.);
#340=EDGE_CURVE('',#310,#304,#160,.T.);
#341=EDGE_CURVE('',#309,#305,#161,.T.);
#342=EDGE_CURVE('',#307,#301,#162,.T.);
#343=EDGE_CURVE('',#313,#313,#355,.T.);
#344=EDGE_CURVE('',#314,#314,#356,.T.);
#345=EDGE_CURVE('',#315,#315,#357,.T.);
#346=EDGE_CURVE('',#316,#316,#358,.T.);
#347=EDGE_CURVE('',#317,#317,#359,.T.);
#348=EDGE_CURVE('',#318,#318,#360,.T.);
#349=EDGE_CURVE('',#319,#319,#361,.T.);
#350=EDGE_CURVE('',#320,#320,#362,.T.);
#351=EDGE_CURVE('',#321,#321,#363,.T.);
#352=EDGE_CURVE('',#322,#322,#364,.T.);
#353=CIRCLE('',#366,15.25);
#354=CIRCLE('',#368,15.25);
#355=CIRCLE('',#377,21.);
#356=CIRCLE('',#378,16.625);
#357=CIRCLE('',#380,13.);
#358=CIRCLE('',#381,16.625);
#359=CIRCLE('',#384,21.);
#360=CIRCLE('',#386,13.);
#361=CIRCLE('',#389,17.5);
#362=CIRCLE('',#390,17.5);
#363=CIRCLE('',#392,43.);
#364=CIRCLE('',#394,43.);
#365=AXIS2_PLACEMENT_3D('',#479,#397,#398);
#366=AXIS2_PLACEMENT_3D('',#480,#399,#400);
#367=AXIS2_PLACEMENT_3D('',#494,#407,#408);
#368=AXIS2_PLACEMENT_3D('',#495,#409,#410);
#369=AXIS2_PLACEMENT_3D('',#509,#417,#418);
#370=AXIS2_PLACEMENT_3D('',#510,#419,#420);
#371=AXIS2_PLACEMENT_3D('',#513,#423,#424);
#372=AXIS2_PLACEMENT_3D('',#515,#426,#427);
#373=AXIS2_PLACEMENT_3D('',#517,#429,#430);
#374=AXIS2_PLACEMENT_3D('',#519,#432,#433);
#375=AXIS2_PLACEMENT_3D('',#521,#435,#436);
#376=AXIS2_PLACEMENT_3D('',#522,#437,#438);
#377=AXIS2_PLACEMENT_3D('',#523,#439,#440);
#378=AXIS2_PLACEMENT_3D('',#525,#441,#442);
#379=AXIS2_PLACEMENT_3D('',#527,#443,#444);
#380=AXIS2_PLACEMENT_3D('',#528,#445,#446);
#381=AXIS2_PLACEMENT_3D('',#530,#447,#448);
#382=AXIS2_PLACEMENT_3D('',#532,#449,#450);
#383=AXIS2_PLACEMENT_3D('',#533,#451,#452);
#384=AXIS2_PLACEMENT_3D('',#534,#453,#454);
#385=AXIS2_PLACEMENT_3D('',#536,#455,#456);
#386=AXIS2_PLACEMENT_3D('',#537,#457,#458);
#387=AXIS2_PLACEMENT_3D('',#539,#459,#460);
#388=AXIS2_PLACEMENT_3D('',#540,#461,#462);
#389=AXIS2_PLACEMENT_3D('',#541,#463,#464);
#390=AXIS2_PLACEMENT_3D('',#543,#465,#466);
#391=AXIS2_PLACEMENT_3D('',#545,#467,#468);
#392=AXIS2_PLACEMENT_3D('',#546,#469,#470);
#393=AXIS2_PLACEMENT_3D('',#548,#471,#472);
#394=AXIS2_PLACEMENT_3D('',#549,#473,#474);
#395=AXIS2_PLACEMENT_3D('',#551,#475,#476);
#396=AXIS2_PLACEMENT_3D('',#552,#477,#478);
#397=DIRECTION('',(0.,0.,1.));
#398=DIRECTION('',(1.,0.,0.));
#399=DIRECTION('',(0.,1.,0.));
#400=DIRECTION('',(-0.866025403784439,0.,-0.5));
#401=DIRECTION('',(4.44089209850063E-016,0.,-1.));
#402=DIRECTION('',(0.866025403784439,0.,0.5));
#403=DIRECTION('',(0.866025403784439,0.,-0.5));
#404=DIRECTION('',(0.,0.,-1.));
#405=DIRECTION('',(-0.866025403784439,0.,-0.5));
#406=DIRECTION('',(-0.866025403784439,0.,0.5));
#407=DIRECTION('',(0.,1.,0.));
#408=DIRECTION('',(-0.866025403784439,0.,-0.5));
#409=DIRECTION('',(0.,-1.,0.));
#410=DIRECTION('',(0.866025403784439,0.,0.5));
#411=DIRECTION('',(-4.44089209850063E-016,0.,1.));
#412=DIRECTION('',(-0.866025403784439,0.,0.5));
#413=DIRECTION('',(-0.866025403784439,0.,-0.5));
#414=DIRECTION('',(0.,0.,-1.));
#415=DIRECTION('',(0.866025403784439,0.,-0.5));
#416=DIRECTION('',(0.866025403784439,0.,0.5));
#417=DIRECTION('',(0.,-1.,0.));
#418=DIRECTION('',(0.866025403784439,0.,0.5));
#419=DIRECTION('',(0.,-1.,0.));
#420=DIRECTION('',(0.866025403784439,0.,0.5));
#421=DIRECTION('',(0.,-1.,0.));
#422=DIRECTION('',(0.,1.,0.));
#423=DIRECTION('',(0.5,0.,-0.866025403784439));
#424=DIRECTION('',(-0.866025403784439,0.,-0.5));
#425=DIRECTION('',(0.,1.,0.));
#426=DIRECTION('',(-0.5,0.,-0.866025403784439));
#427=DIRECTION('',(-0.866025403784439,0.,0.5));
#428=DIRECTION('',(0.,1.,0.));
#429=DIRECTION('',(-1.,0.,0.));
#430=DIRECTION('',(0.,0.,1.));
#431=DIRECTION('',(0.,1.,0.));
#432=DIRECTION('',(-0.5,0.,0.866025403784439));
#433=DIRECTION('',(0.866025403784439,0.,0.5));
#434=DIRECTION('',(0.,1.,0.));
#435=DIRECTION('',(0.5,0.,0.866025403784439));
#436=DIRECTION('',(0.866025403784439,0.,-0.5));
#437=DIRECTION('',(1.,0.,4.44089209850063E-016));
#438=DIRECTION('',(4.44089209850063E-016,0.,-1.));
#439=DIRECTION('',(0.,-1.,0.));
#440=DIRECTION('',(1.,0.,0.));
#441=DIRECTION('',(0.,-1.,0.));
#442=DIRECTION('',(-1.,0.,0.));
#443=DIRECTION('',(0.,-1.,0.));
#444=DIRECTION('',(-1.,1.98944986783073E-017,0.));
#445=DIRECTION('',(0.,-1.,0.));
#446=DIRECTION('',(-1.,0.,0.));
#447=DIRECTION('',(0.,-1.,0.));
#448=DIRECTION('',(-1.,0.,0.));
#449=DIRECTION('',(0.,1.,0.));
#450=DIRECTION('',(1.,0.,0.));
#451=DIRECTION('',(0.,1.,0.));
#452=DIRECTION('',(1.,0.,0.));
#453=DIRECTION('',(0.,-1.,0.));
#454=DIRECTION('',(1.,0.,0.));
#455=DIRECTION('',(0.,1.,0.));
#456=DIRECTION('',(1.,0.,0.));
#457=DIRECTION('',(0.,-1.,0.));
#458=DIRECTION('',(-1.,0.,0.));
#459=DIRECTION('',(0.,-1.,0.));
#460=DIRECTION('',(-1.,0.,0.));
#461=DIRECTION('',(0.,-1.,0.));
#462=DIRECTION('',(-1.,0.,0.));
#463=DIRECTION('',(0.,1.,0.));
#464=DIRECTION('',(-1.,0.,0.));
#465=DIRECTION('',(0.,1.,0.));
#466=DIRECTION('',(-1.,0.,0.));
#467=DIRECTION('',(0.,1.,0.));
#468=DIRECTION('',(-1.,0.,0.));
#469=DIRECTION('',(0.,1.,0.));
#470=DIRECTION('',(-1.,0.,0.));
#471=DIRECTION('',(0.,-1.,0.));
#472=DIRECTION('',(1.,1.15662086274113E-017,0.));
#473=DIRECTION('',(0.,1.,0.));
#474=DIRECTION('',(-1.,0.,0.));
#475=DIRECTION('',(0.,1.,0.));
#476=DIRECTION('',(-1.,0.,0.));
#477=DIRECTION('',(0.,-1.,0.));
#478=DIRECTION('',(1.,-1.24071267484575E-017,0.));
#479=CARTESIAN_POINT('',(0.,0.,0.));
#480=CARTESIAN_POINT('',(-2.78960905547689E-016,19.9385329482239,1.437404579145E-015));
#481=CARTESIAN_POINT('',(-13.2068874077127,19.9385329482239,-7.625));
#482=CARTESIAN_POINT('',(-20.5,19.9385329482239,-8.21977897734726E-015));
#483=CARTESIAN_POINT('',(-20.5,19.9385329482239,11.8356805183873));
#484=CARTESIAN_POINT('',(-20.5,19.9385329482239,-11.8356805183873));
#485=CARTESIAN_POINT('',(11.400635094611,19.9385329482239,30.253520777581));
#486=CARTESIAN_POINT('',(7.96097560534215E-015,19.9385329482239,23.6713610367747));
#487=CARTESIAN_POINT('',(31.900635094611,19.9385329482239,5.25352077758099));
#488=CARTESIAN_POINT('',(20.5,19.9385329482239,11.8356805183873));
#489=CARTESIAN_POINT('',(20.5,19.9385329482239,-25.));
#490=CARTESIAN_POINT('',(20.5,19.9385329482239,-11.8356805183873));
#491=CARTESIAN_POINT('',(-11.400635094611,19.9385329482239,-30.253520777581));
#492=CARTESIAN_POINT('',(6.22625212936534E-015,19.9385329482239,-23.6713610367747));
#493=CARTESIAN_POINT('',(-31.900635094611,19.9385329482239,-5.253520777581));
#494=CARTESIAN_POINT('',(-7.1264177454189E-016,19.9385329482239,2.18856187851358E-015));
#495=CARTESIAN_POINT('',(-2.78960905547689E-016,9.93853294822389,1.437404579145E-015));
#496=CARTESIAN_POINT('',(13.2068874077127,9.93853294822389,7.625));
#497=CARTESIAN_POINT('',(-20.5,9.93853294822389,-8.21977897734726E-015));
#498=CARTESIAN_POINT('',(-20.5,9.93853294822389,-11.8356805183873));
#499=CARTESIAN_POINT('',(-20.5,9.93853294822389,11.8356805183873));
#500=CARTESIAN_POINT('',(-10.25,9.93853294822389,-17.753520777581));
#501=CARTESIAN_POINT('',(7.96097560534215E-015,9.93853294822389,-23.6713610367747));
#502=CARTESIAN_POINT('',(10.25,9.93853294822389,-17.753520777581));
#503=CARTESIAN_POINT('',(20.5,9.93853294822389,-11.8356805183873));
#504=CARTESIAN_POINT('',(20.5,9.93853294822389,2.18856187851358E-015));
#505=CARTESIAN_POINT('',(20.5,9.93853294822389,11.8356805183873));
#506=CARTESIAN_POINT('',(10.25,9.93853294822389,17.753520777581));
#507=CARTESIAN_POINT('',(6.22625212936534E-015,9.93853294822389,23.6713610367747));
#508=CARTESIAN_POINT('',(-10.25,9.93853294822389,17.753520777581));
#509=CARTESIAN_POINT('',(-7.1264177454189E-016,9.93853294822389,2.18856187851358E-015));
#510=CARTESIAN_POINT('',(-2.78960905547689E-016,19.9385329482239,1.437404579145E-015));
#511=CARTESIAN_POINT('',(-20.5,19.9385329482239,11.8356805183873));
#512=CARTESIAN_POINT('',(6.22625212936534E-015,19.9385329482239,23.6713610367747));
#513=CARTESIAN_POINT('',(11.400635094611,19.9385329482239,30.253520777581));
#514=CARTESIAN_POINT('',(20.5,19.9385329482239,11.8356805183873));
#515=CARTESIAN_POINT('',(31.900635094611,19.9385329482239,5.25352077758099));
#516=CARTESIAN_POINT('',(20.5,19.9385329482239,-11.8356805183873));
#517=CARTESIAN_POINT('',(20.5,19.9385329482239,-25.));
#518=CARTESIAN_POINT('',(7.96097560534215E-015,19.9385329482239,-23.6713610367747));
#519=CARTESIAN_POINT('',(-11.400635094611,19.9385329482239,-30.253520777581));
#520=CARTESIAN_POINT('',(-20.5,19.9385329482239,-11.8356805183873));
#521=CARTESIAN_POINT('',(-31.900635094611,19.9385329482239,-5.253520777581));
#522=CARTESIAN_POINT('',(-20.5,19.9385329482239,25.));
#523=CARTESIAN_POINT('',(0.,0.500000000000001,0.));
#524=CARTESIAN_POINT('',(21.,0.500000000000001,0.));
#525=CARTESIAN_POINT('',(0.,2.09236977491463,0.));
#526=CARTESIAN_POINT('',(-16.625,2.09236977491463,0.));
#527=CARTESIAN_POINT('',(0.,0.500000000000001,0.));
#528=CARTESIAN_POINT('',(-4.33680868994202E-016,34.,-8.67361737988404E-016));
#529=CARTESIAN_POINT('',(-13.,34.,-8.67361737988404E-016));
#530=CARTESIAN_POINT('',(0.,34.,0.));
#531=CARTESIAN_POINT('',(-16.625,34.,0.));
#532=CARTESIAN_POINT('',(0.,34.,0.));
#533=CARTESIAN_POINT('',(0.,2.1,0.));
#534=CARTESIAN_POINT('',(0.,8.67361737988404E-016,0.));
#535=CARTESIAN_POINT('',(21.,8.67361737988404E-016,0.));
#536=CARTESIAN_POINT('',(0.,8.67361737988404E-016,0.));
#537=CARTESIAN_POINT('',(-4.33680868994202E-016,3.46944695195361E-015,-8.67361737988404E-016));
#538=CARTESIAN_POINT('',(-13.,3.46944695195361E-015,-8.67361737988404E-016));
#539=CARTESIAN_POINT('',(0.,8.67361737988404E-016,0.));
#540=CARTESIAN_POINT('',(-4.33680868994202E-016,34.,-8.67361737988404E-016));
#541=CARTESIAN_POINT('',(0.,6.83270440699364,0.));
#542=CARTESIAN_POINT('',(-17.5,6.83270440699364,0.));
#543=CARTESIAN_POINT('',(0.,9.93853294822389,0.));
#544=CARTESIAN_POINT('',(-17.5,9.93853294822389,0.));
#545=CARTESIAN_POINT('',(0.,56.2200277053424,0.));
#546=CARTESIAN_POINT('',(0.,-1.73472347597681E-015,0.));
#547=CARTESIAN_POINT('',(-43.,-1.73472347597681E-015,0.));
#548=CARTESIAN_POINT('',(0.,6.83270440699364,0.));
#549=CARTESIAN_POINT('',(0.,3.10582854123025,0.));
#550=CARTESIAN_POINT('',(-43.,3.10582854123025,0.));
#551=CARTESIAN_POINT('',(0.,56.2200277053424,0.));
#552=CARTESIAN_POINT('',(0.,3.10582854123025,0.));
#553=(
GEOMETRIC_REPRESENTATION_CONTEXT(3)
GLOBAL_UNCERTAINTY_ASSIGNED_CONTEXT((#554))
GLOBAL_UNIT_ASSIGNED_CONTEXT((#560,#556,#555))
REPRESENTATION_CONTEXT('METU_E01V-1003_ST-G_1','TOP_LEVEL_ASSEMBLY_PART')
);
#554=UNCERTAINTY_MEASURE_WITH_UNIT(LENGTH_MEASURE(2.E-005),#560,
'DISTANCE_ACCURACY_VALUE','Maximum Tolerance applied to model');
#555=(
NAMED_UNIT(*)
SI_UNIT($,.STERADIAN.)
SOLID_ANGLE_UNIT()
);
#556=(
CONVERSION_BASED_UNIT('DEGREE',#558)
NAMED_UNIT(#557)
PLANE_ANGLE_UNIT()
);
#557=DIMENSIONAL_EXPONENTS(0.,0.,0.,0.,0.,0.,0.);
#558=PLANE_ANGLE_MEASURE_WITH_UNIT(PLANE_ANGLE_MEASURE(0.0174532925),#559);
#559=(
NAMED_UNIT(*)
PLANE_ANGLE_UNIT()
SI_UNIT($,.RADIAN.)
);
#560=(
LENGTH_UNIT()
NAMED_UNIT(*)
SI_UNIT(.MILLI.,.METRE.)
);
ENDSEC;
END-ISO-10303-21;
