ISO-10303-21;
HEADER;
/* Generated by software containing ST-Developer
 * from STEP Tools, Inc. (www.steptools.com) 
 */
/* OPTION: using custom schema-name function */

FILE_DESCRIPTION(
/* description */ (''),
/* implementation_level */ '2;1');

FILE_NAME(
/* name */ 'METU_E01V-1002_ST-G_3-4.stp',
/* time_stamp */ '2018-10-05T14:26:54+02:00',
/* author */ (''),
/* organization */ (''),
/* preprocessor_version */ 'ST-DEVELOPER v11',
/* originating_system */ 'SIEMENS UGS NX 6.0',
/* authorisation */ '');

FILE_SCHEMA (('CONFIG_CONTROL_DESIGN'));
ENDSEC;

DATA;
#10=SHAPE_REPRESENTATION_RELATIONSHIP('None',
'relationship between gars64E343b4-None and gars64E343b4-None',#94,#11);
#11=ADVANCED_BREP_SHAPE_REPRESENTATION('gars64E343b4-None',(#137,#138,#139),
#553);
#12=CC_DESIGN_APPROVAL(#24,(#82));
#13=CC_DESIGN_APPROVAL(#25,(#84));
#14=CC_DESIGN_APPROVAL(#26,(#31));
#15=APPROVAL_PERSON_ORGANIZATION(#69,#24,#18);
#16=APPROVAL_PERSON_ORGANIZATION(#70,#25,#19);
#17=APPROVAL_PERSON_ORGANIZATION(#71,#26,#20);
#18=APPROVAL_ROLE('approver');
#19=APPROVAL_ROLE('approver');
#20=APPROVAL_ROLE('approver');
#21=APPROVAL_DATE_TIME(#39,#24);
#22=APPROVAL_DATE_TIME(#40,#25);
#23=APPROVAL_DATE_TIME(#41,#26);
#24=APPROVAL(#27,' ');
#25=APPROVAL(#28,' ');
#26=APPROVAL(#29,' ');
#27=APPROVAL_STATUS('not_yet_approved');
#28=APPROVAL_STATUS('not_yet_approved');
#29=APPROVAL_STATUS('not_yet_approved');
#30=CC_DESIGN_SECURITY_CLASSIFICATION(#31,(#84));
#31=SECURITY_CLASSIFICATION(' ',' ',#32);
#32=SECURITY_CLASSIFICATION_LEVEL('confidential');
#33=CC_DESIGN_DATE_AND_TIME_ASSIGNMENT(#37,#35,(#82));
#34=CC_DESIGN_DATE_AND_TIME_ASSIGNMENT(#38,#36,(#31));
#35=DATE_TIME_ROLE('creation_date');
#36=DATE_TIME_ROLE('classification_date');
#37=DATE_AND_TIME(#52,#42);
#38=DATE_AND_TIME(#53,#43);
#39=DATE_AND_TIME(#54,#44);
#40=DATE_AND_TIME(#55,#45);
#41=DATE_AND_TIME(#56,#46);
#42=LOCAL_TIME(0,0,0.,#47);
#43=LOCAL_TIME(0,0,0.,#48);
#44=LOCAL_TIME(0,0,0.,#49);
#45=LOCAL_TIME(0,0,0.,#50);
#46=LOCAL_TIME(0,0,0.,#51);
#47=COORDINATED_UNIVERSAL_TIME_OFFSET(0,0,.BEHIND.);
#48=COORDINATED_UNIVERSAL_TIME_OFFSET(0,0,.BEHIND.);
#49=COORDINATED_UNIVERSAL_TIME_OFFSET(0,0,.BEHIND.);
#50=COORDINATED_UNIVERSAL_TIME_OFFSET(0,0,.BEHIND.);
#51=COORDINATED_UNIVERSAL_TIME_OFFSET(0,0,.BEHIND.);
#52=CALENDAR_DATE(0,1,1);
#53=CALENDAR_DATE(0,1,1);
#54=CALENDAR_DATE(0,1,1);
#55=CALENDAR_DATE(0,1,1);
#56=CALENDAR_DATE(0,1,1);
#57=CC_DESIGN_PERSON_AND_ORGANIZATION_ASSIGNMENT(#65,#61,(#82,#84));
#58=CC_DESIGN_PERSON_AND_ORGANIZATION_ASSIGNMENT(#66,#62,(#86));
#59=CC_DESIGN_PERSON_AND_ORGANIZATION_ASSIGNMENT(#67,#63,(#84));
#60=CC_DESIGN_PERSON_AND_ORGANIZATION_ASSIGNMENT(#68,#64,(#31));
#61=PERSON_AND_ORGANIZATION_ROLE('creator');
#62=PERSON_AND_ORGANIZATION_ROLE('design_owner');
#63=PERSON_AND_ORGANIZATION_ROLE('design_supplier');
#64=PERSON_AND_ORGANIZATION_ROLE('classification_officer');
#65=PERSON_AND_ORGANIZATION(#79,#72);
#66=PERSON_AND_ORGANIZATION(#79,#73);
#67=PERSON_AND_ORGANIZATION(#79,#74);
#68=PERSON_AND_ORGANIZATION(#79,#75);
#69=PERSON_AND_ORGANIZATION(#79,#76);
#70=PERSON_AND_ORGANIZATION(#79,#77);
#71=PERSON_AND_ORGANIZATION(#79,#78);
#72=ORGANIZATION(' ',' ',' ');
#73=ORGANIZATION(' ',' ',' ');
#74=ORGANIZATION(' ',' ',' ');
#75=ORGANIZATION(' ',' ',' ');
#76=ORGANIZATION(' ',' ',' ');
#77=ORGANIZATION(' ',' ',' ');
#78=ORGANIZATION(' ',' ',' ');
#79=PERSON(' ',' ',' ',(' '),$,$);
#80=SHAPE_DEFINITION_REPRESENTATION(#81,#94);
#81=PRODUCT_DEFINITION_SHAPE('','',#82);
#82=PRODUCT_DEFINITION(' ','',#84,#83);
#83=DESIGN_CONTEXT('',#93,'design');
#84=PRODUCT_DEFINITION_FORMATION_WITH_SPECIFIED_SOURCE(' ',' ',#86,.NOT_KNOWN.);
#85=PRODUCT_RELATED_PRODUCT_CATEGORY('detail','',(#86));
#86=PRODUCT('gars64E343b4','gars64E343b4',' ',(#91));
#87=PRODUCT_CATEGORY_RELATIONSHIP(' ',' ',#89,#90);
#88=PRODUCT_CATEGORY_RELATIONSHIP('','',#90,#85);
#89=PRODUCT_CATEGORY('part',' ');
#90=PRODUCT_CATEGORY(' ','');
#91=MECHANICAL_CONTEXT(' ',#93,'mechanical');
#92=APPLICATION_PROTOCOL_DEFINITION('international standard',
'config_control_design',1994,#93);
#93=APPLICATION_CONTEXT(
'configuration controlled 3D designs of mechanical parts and assemblies');
#94=SHAPE_REPRESENTATION('gars64E343b4-None',(#365),#553);
#95=FACE_OUTER_BOUND('',#225,.T.);
#96=FACE_OUTER_BOUND('',#226,.T.);
#97=FACE_OUTER_BOUND('',#227,.T.);
#98=FACE_OUTER_BOUND('',#228,.T.);
#99=FACE_OUTER_BOUND('',#229,.T.);
#100=FACE_OUTER_BOUND('',#230,.T.);
#101=LINE('',#500,#119);
#102=LINE('',#503,#120);
#103=LINE('',#505,#121);
#104=LINE('',#507,#122);
#105=LINE('',#509,#123);
#106=LINE('',#511,#124);
#107=LINE('',#515,#125);
#108=LINE('',#518,#126);
#109=LINE('',#520,#127);
#110=LINE('',#522,#128);
#111=LINE('',#524,#129);
#112=LINE('',#526,#130);
#113=LINE('',#529,#131);
#114=LINE('',#530,#132);
#115=LINE('',#532,#133);
#116=LINE('',#534,#134);
#117=LINE('',#536,#135);
#118=LINE('',#538,#136);
#119=VECTOR('',#425,1.);
#120=VECTOR('',#426,1.);
#121=VECTOR('',#427,1.);
#122=VECTOR('',#428,1.);
#123=VECTOR('',#429,1.);
#124=VECTOR('',#430,1.);
#125=VECTOR('',#435,1.);
#126=VECTOR('',#436,1.);
#127=VECTOR('',#437,1.);
#128=VECTOR('',#438,1.);
#129=VECTOR('',#439,1.);
#130=VECTOR('',#440,1.);
#131=VECTOR('',#445,1.);
#132=VECTOR('',#446,1.);
#133=VECTOR('',#449,1.);
#134=VECTOR('',#452,1.);
#135=VECTOR('',#455,1.);
#136=VECTOR('',#458,1.);
#137=MANIFOLD_SOLID_BREP('',#140);
#138=MANIFOLD_SOLID_BREP('',#141);
#139=MANIFOLD_SOLID_BREP('',#142);
#140=CLOSED_SHELL('',(#159,#160,#161,#162,#163,#164));
#141=CLOSED_SHELL('',(#165,#166,#167,#168,#169,#170,#171,#172,#173));
#142=CLOSED_SHELL('',(#174,#175,#176,#177));
#143=CYLINDRICAL_SURFACE('',#375,13.22);
#144=CYLINDRICAL_SURFACE('',#376,17.5);
#145=CYLINDRICAL_SURFACE('',#377,10.);
#146=CYLINDRICAL_SURFACE('',#382,12.2);
#147=CYLINDRICAL_SURFACE('',#391,43.);
#148=CYLINDRICAL_SURFACE('',#395,14.);
#149=PLANE('',#371);
#150=PLANE('',#374);
#151=PLANE('',#379);
#152=PLANE('',#381);
#153=PLANE('',#383);
#154=PLANE('',#384);
#155=PLANE('',#385);
#156=PLANE('',#386);
#157=PLANE('',#387);
#158=PLANE('',#388);
#159=ADVANCED_FACE('',(#181,#182),#178,.T.);
#160=ADVANCED_FACE('',(#183,#184),#149,.T.);
#161=ADVANCED_FACE('',(#185,#186),#150,.T.);
#162=ADVANCED_FACE('',(#187,#188),#143,.T.);
#163=ADVANCED_FACE('',(#189,#190),#144,.T.);
#164=ADVANCED_FACE('',(#191,#192),#145,.F.);
#165=ADVANCED_FACE('',(#193,#194),#151,.T.);
#166=ADVANCED_FACE('',(#195,#196),#152,.T.);
#167=ADVANCED_FACE('',(#197,#198),#146,.F.);
#168=ADVANCED_FACE('',(#95),#153,.F.);
#169=ADVANCED_FACE('',(#96),#154,.F.);
#170=ADVANCED_FACE('',(#97),#155,.F.);
#171=ADVANCED_FACE('',(#98),#156,.F.);
#172=ADVANCED_FACE('',(#99),#157,.F.);
#173=ADVANCED_FACE('',(#100),#158,.F.);
#174=ADVANCED_FACE('',(#199,#200),#147,.T.);
#175=ADVANCED_FACE('',(#201,#202),#179,.F.);
#176=ADVANCED_FACE('',(#203,#204),#148,.F.);
#177=ADVANCED_FACE('',(#205,#206),#180,.T.);
#178=CONICAL_SURFACE('',#368,17.5,70.);
#179=CONICAL_SURFACE('',#393,43.,75.);
#180=CONICAL_SURFACE('',#396,14.,75.);
#181=FACE_BOUND('',#207,.T.);
#182=FACE_BOUND('',#208,.T.);
#183=FACE_BOUND('',#209,.T.);
#184=FACE_BOUND('',#210,.T.);
#185=FACE_BOUND('',#211,.T.);
#186=FACE_BOUND('',#212,.T.);
#187=FACE_BOUND('',#213,.T.);
#188=FACE_BOUND('',#214,.T.);
#189=FACE_BOUND('',#215,.T.);
#190=FACE_BOUND('',#216,.T.);
#191=FACE_BOUND('',#217,.T.);
#192=FACE_BOUND('',#218,.T.);
#193=FACE_BOUND('',#219,.T.);
#194=FACE_BOUND('',#220,.T.);
#195=FACE_BOUND('',#221,.T.);
#196=FACE_BOUND('',#222,.T.);
#197=FACE_BOUND('',#223,.T.);
#198=FACE_BOUND('',#224,.T.);
#199=FACE_BOUND('',#231,.T.);
#200=FACE_BOUND('',#232,.T.);
#201=FACE_BOUND('',#233,.T.);
#202=FACE_BOUND('',#234,.T.);
#203=FACE_BOUND('',#235,.T.);
#204=FACE_BOUND('',#236,.T.);
#205=FACE_BOUND('',#237,.T.);
#206=FACE_BOUND('',#238,.T.);
#207=EDGE_LOOP('',(#239));
#208=EDGE_LOOP('',(#240));
#209=EDGE_LOOP('',(#241));
#210=EDGE_LOOP('',(#242));
#211=EDGE_LOOP('',(#243));
#212=EDGE_LOOP('',(#244));
#213=EDGE_LOOP('',(#245));
#214=EDGE_LOOP('',(#246));
#215=EDGE_LOOP('',(#247));
#216=EDGE_LOOP('',(#248));
#217=EDGE_LOOP('',(#249));
#218=EDGE_LOOP('',(#250));
#219=EDGE_LOOP('',(#251));
#220=EDGE_LOOP('',(#252,#253,#254,#255,#256,#257));
#221=EDGE_LOOP('',(#258));
#222=EDGE_LOOP('',(#259,#260,#261,#262,#263,#264));
#223=EDGE_LOOP('',(#265));
#224=EDGE_LOOP('',(#266));
#225=EDGE_LOOP('',(#267,#268,#269,#270));
#226=EDGE_LOOP('',(#271,#272,#273,#274));
#227=EDGE_LOOP('',(#275,#276,#277,#278));
#228=EDGE_LOOP('',(#279,#280,#281,#282));
#229=EDGE_LOOP('',(#283,#284,#285,#286));
#230=EDGE_LOOP('',(#287,#288,#289,#290));
#231=EDGE_LOOP('',(#291));
#232=EDGE_LOOP('',(#292));
#233=EDGE_LOOP('',(#293));
#234=EDGE_LOOP('',(#294));
#235=EDGE_LOOP('',(#295));
#236=EDGE_LOOP('',(#296));
#237=EDGE_LOOP('',(#297));
#238=EDGE_LOOP('',(#298));
#239=ORIENTED_EDGE('',*,*,#323,.F.);
#240=ORIENTED_EDGE('',*,*,#324,.T.);
#241=ORIENTED_EDGE('',*,*,#325,.T.);
#242=ORIENTED_EDGE('',*,*,#326,.T.);
#243=ORIENTED_EDGE('',*,*,#327,.F.);
#244=ORIENTED_EDGE('',*,*,#328,.T.);
#245=ORIENTED_EDGE('',*,*,#327,.T.);
#246=ORIENTED_EDGE('',*,*,#324,.F.);
#247=ORIENTED_EDGE('',*,*,#325,.F.);
#248=ORIENTED_EDGE('',*,*,#323,.T.);
#249=ORIENTED_EDGE('',*,*,#328,.F.);
#250=ORIENTED_EDGE('',*,*,#326,.F.);
#251=ORIENTED_EDGE('',*,*,#329,.F.);
#252=ORIENTED_EDGE('',*,*,#330,.F.);
#253=ORIENTED_EDGE('',*,*,#331,.T.);
#254=ORIENTED_EDGE('',*,*,#332,.T.);
#255=ORIENTED_EDGE('',*,*,#333,.T.);
#256=ORIENTED_EDGE('',*,*,#334,.T.);
#257=ORIENTED_EDGE('',*,*,#335,.T.);
#258=ORIENTED_EDGE('',*,*,#336,.F.);
#259=ORIENTED_EDGE('',*,*,#337,.F.);
#260=ORIENTED_EDGE('',*,*,#338,.F.);
#261=ORIENTED_EDGE('',*,*,#339,.F.);
#262=ORIENTED_EDGE('',*,*,#340,.F.);
#263=ORIENTED_EDGE('',*,*,#341,.F.);
#264=ORIENTED_EDGE('',*,*,#342,.F.);
#265=ORIENTED_EDGE('',*,*,#329,.T.);
#266=ORIENTED_EDGE('',*,*,#336,.T.);
#267=ORIENTED_EDGE('',*,*,#331,.F.);
#268=ORIENTED_EDGE('',*,*,#343,.T.);
#269=ORIENTED_EDGE('',*,*,#342,.T.);
#270=ORIENTED_EDGE('',*,*,#344,.T.);
#271=ORIENTED_EDGE('',*,*,#341,.T.);
#272=ORIENTED_EDGE('',*,*,#345,.T.);
#273=ORIENTED_EDGE('',*,*,#332,.F.);
#274=ORIENTED_EDGE('',*,*,#344,.F.);
#275=ORIENTED_EDGE('',*,*,#340,.T.);
#276=ORIENTED_EDGE('',*,*,#346,.T.);
#277=ORIENTED_EDGE('',*,*,#333,.F.);
#278=ORIENTED_EDGE('',*,*,#345,.F.);
#279=ORIENTED_EDGE('',*,*,#339,.T.);
#280=ORIENTED_EDGE('',*,*,#347,.T.);
#281=ORIENTED_EDGE('',*,*,#334,.F.);
#282=ORIENTED_EDGE('',*,*,#346,.F.);
#283=ORIENTED_EDGE('',*,*,#338,.T.);
#284=ORIENTED_EDGE('',*,*,#348,.T.);
#285=ORIENTED_EDGE('',*,*,#335,.F.);
#286=ORIENTED_EDGE('',*,*,#347,.F.);
#287=ORIENTED_EDGE('',*,*,#343,.F.);
#288=ORIENTED_EDGE('',*,*,#330,.T.);
#289=ORIENTED_EDGE('',*,*,#348,.F.);
#290=ORIENTED_EDGE('',*,*,#337,.T.);
#291=ORIENTED_EDGE('',*,*,#349,.T.);
#292=ORIENTED_EDGE('',*,*,#350,.F.);
#293=ORIENTED_EDGE('',*,*,#351,.T.);
#294=ORIENTED_EDGE('',*,*,#349,.F.);
#295=ORIENTED_EDGE('',*,*,#352,.T.);
#296=ORIENTED_EDGE('',*,*,#351,.F.);
#297=ORIENTED_EDGE('',*,*,#350,.T.);
#298=ORIENTED_EDGE('',*,*,#352,.F.);
#299=VERTEX_POINT('',#481);
#300=VERTEX_POINT('',#483);
#301=VERTEX_POINT('',#486);
#302=VERTEX_POINT('',#488);
#303=VERTEX_POINT('',#491);
#304=VERTEX_POINT('',#493);
#305=VERTEX_POINT('',#499);
#306=VERTEX_POINT('',#501);
#307=VERTEX_POINT('',#502);
#308=VERTEX_POINT('',#504);
#309=VERTEX_POINT('',#506);
#310=VERTEX_POINT('',#508);
#311=VERTEX_POINT('',#510);
#312=VERTEX_POINT('',#514);
#313=VERTEX_POINT('',#516);
#314=VERTEX_POINT('',#517);
#315=VERTEX_POINT('',#519);
#316=VERTEX_POINT('',#521);
#317=VERTEX_POINT('',#523);
#318=VERTEX_POINT('',#525);
#319=VERTEX_POINT('',#542);
#320=VERTEX_POINT('',#544);
#321=VERTEX_POINT('',#547);
#322=VERTEX_POINT('',#550);
#323=EDGE_CURVE('',#299,#299,#353,.T.);
#324=EDGE_CURVE('',#300,#300,#354,.T.);
#325=EDGE_CURVE('',#301,#301,#355,.T.);
#326=EDGE_CURVE('',#302,#302,#356,.T.);
#327=EDGE_CURVE('',#303,#303,#357,.T.);
#328=EDGE_CURVE('',#304,#304,#358,.T.);
#329=EDGE_CURVE('',#305,#305,#359,.T.);
#330=EDGE_CURVE('',#306,#307,#101,.T.);
#331=EDGE_CURVE('',#306,#308,#102,.T.);
#332=EDGE_CURVE('',#308,#309,#103,.T.);
#333=EDGE_CURVE('',#309,#310,#104,.T.);
#334=EDGE_CURVE('',#310,#311,#105,.T.);
#335=EDGE_CURVE('',#311,#307,#106,.T.);
#336=EDGE_CURVE('',#312,#312,#360,.T.);
#337=EDGE_CURVE('',#313,#314,#107,.T.);
#338=EDGE_CURVE('',#315,#313,#108,.T.);
#339=EDGE_CURVE('',#316,#315,#109,.T.);
#340=EDGE_CURVE('',#317,#316,#110,.T.);
#341=EDGE_CURVE('',#318,#317,#111,.T.);
#342=EDGE_CURVE('',#314,#318,#112,.T.);
#343=EDGE_CURVE('',#306,#314,#113,.T.);
#344=EDGE_CURVE('',#318,#308,#114,.T.);
#345=EDGE_CURVE('',#317,#309,#115,.T.);
#346=EDGE_CURVE('',#316,#310,#116,.T.);
#347=EDGE_CURVE('',#315,#311,#117,.T.);
#348=EDGE_CURVE('',#313,#307,#118,.T.);
#349=EDGE_CURVE('',#319,#319,#361,.T.);
#350=EDGE_CURVE('',#320,#320,#362,.T.);
#351=EDGE_CURVE('',#321,#321,#363,.T.);
#352=EDGE_CURVE('',#322,#322,#364,.T.);
#353=CIRCLE('',#366,17.5);
#354=CIRCLE('',#367,13.22);
#355=CIRCLE('',#369,17.5);
#356=CIRCLE('',#370,10.);
#357=CIRCLE('',#372,13.22);
#358=CIRCLE('',#373,10.);
#359=CIRCLE('',#378,12.2);
#360=CIRCLE('',#380,12.2);
#361=CIRCLE('',#389,43.);
#362=CIRCLE('',#390,43.);
#363=CIRCLE('',#392,14.);
#364=CIRCLE('',#394,14.);
#365=AXIS2_PLACEMENT_3D('',#479,#397,#398);
#366=AXIS2_PLACEMENT_3D('',#480,#399,#400);
#367=AXIS2_PLACEMENT_3D('',#482,#401,#402);
#368=AXIS2_PLACEMENT_3D('',#484,#403,#404);
#369=AXIS2_PLACEMENT_3D('',#485,#405,#406);
#370=AXIS2_PLACEMENT_3D('',#487,#407,#408);
#371=AXIS2_PLACEMENT_3D('',#489,#409,#410);
#372=AXIS2_PLACEMENT_3D('',#490,#411,#412);
#373=AXIS2_PLACEMENT_3D('',#492,#413,#414);
#374=AXIS2_PLACEMENT_3D('',#494,#415,#416);
#375=AXIS2_PLACEMENT_3D('',#495,#417,#418);
#376=AXIS2_PLACEMENT_3D('',#496,#419,#420);
#377=AXIS2_PLACEMENT_3D('',#497,#421,#422);
#378=AXIS2_PLACEMENT_3D('',#498,#423,#424);
#379=AXIS2_PLACEMENT_3D('',#512,#431,#432);
#380=AXIS2_PLACEMENT_3D('',#513,#433,#434);
#381=AXIS2_PLACEMENT_3D('',#527,#441,#442);
#382=AXIS2_PLACEMENT_3D('',#528,#443,#444);
#383=AXIS2_PLACEMENT_3D('',#531,#447,#448);
#384=AXIS2_PLACEMENT_3D('',#533,#450,#451);
#385=AXIS2_PLACEMENT_3D('',#535,#453,#454);
#386=AXIS2_PLACEMENT_3D('',#537,#456,#457);
#387=AXIS2_PLACEMENT_3D('',#539,#459,#460);
#388=AXIS2_PLACEMENT_3D('',#540,#461,#462);
#389=AXIS2_PLACEMENT_3D('',#541,#463,#464);
#390=AXIS2_PLACEMENT_3D('',#543,#465,#466);
#391=AXIS2_PLACEMENT_3D('',#545,#467,#468);
#392=AXIS2_PLACEMENT_3D('',#546,#469,#470);
#393=AXIS2_PLACEMENT_3D('',#548,#471,#472);
#394=AXIS2_PLACEMENT_3D('',#549,#473,#474);
#395=AXIS2_PLACEMENT_3D('',#551,#475,#476);
#396=AXIS2_PLACEMENT_3D('',#552,#477,#478);
#397=DIRECTION('',(0.,0.,1.));
#398=DIRECTION('',(1.,0.,0.));
#399=DIRECTION('',(0.,-1.,0.));
#400=DIRECTION('',(1.,0.,0.));
#401=DIRECTION('',(0.,-1.,0.));
#402=DIRECTION('',(-1.,0.,0.));
#403=DIRECTION('',(0.,-1.,0.));
#404=DIRECTION('',(-1.,1.99196817936862E-017,0.));
#405=DIRECTION('',(0.,-1.,0.));
#406=DIRECTION('',(1.,0.,0.));
#407=DIRECTION('',(0.,1.,0.));
#408=DIRECTION('',(-1.,0.,0.));
#409=DIRECTION('',(0.,-1.,0.));
#410=DIRECTION('',(-1.,0.,0.));
#411=DIRECTION('',(0.,-1.,0.));
#412=DIRECTION('',(1.,0.,0.));
#413=DIRECTION('',(0.,-1.,0.));
#414=DIRECTION('',(1.,0.,0.));
#415=DIRECTION('',(0.,1.,0.));
#416=DIRECTION('',(1.,0.,0.));
#417=DIRECTION('',(0.,1.,0.));
#418=DIRECTION('',(1.,0.,0.));
#419=DIRECTION('',(0.,1.,0.));
#420=DIRECTION('',(1.,0.,0.));
#421=DIRECTION('',(0.,1.,0.));
#422=DIRECTION('',(1.,0.,0.));
#423=DIRECTION('',(0.,1.,0.));
#424=DIRECTION('',(-0.866025403784439,0.,-0.5));
#425=DIRECTION('',(4.44089209850063E-016,0.,-1.));
#426=DIRECTION('',(0.866025403784439,0.,0.5));
#427=DIRECTION('',(0.866025403784439,0.,-0.5));
#428=DIRECTION('',(0.,0.,-1.));
#429=DIRECTION('',(-0.866025403784439,0.,-0.5));
#430=DIRECTION('',(-0.866025403784439,0.,0.5));
#431=DIRECTION('',(0.,1.,0.));
#432=DIRECTION('',(-0.866025403784439,0.,-0.5));
#433=DIRECTION('',(0.,-1.,0.));
#434=DIRECTION('',(0.866025403784439,0.,0.5));
#435=DIRECTION('',(-4.44089209850063E-016,0.,1.));
#436=DIRECTION('',(-0.866025403784439,0.,0.5));
#437=DIRECTION('',(-0.866025403784439,0.,-0.5));
#438=DIRECTION('',(0.,0.,-1.));
#439=DIRECTION('',(0.866025403784439,0.,-0.5));
#440=DIRECTION('',(0.866025403784439,0.,0.5));
#441=DIRECTION('',(0.,-1.,0.));
#442=DIRECTION('',(0.866025403784439,0.,0.5));
#443=DIRECTION('',(0.,-1.,0.));
#444=DIRECTION('',(0.866025403784439,0.,0.5));
#445=DIRECTION('',(0.,-1.,0.));
#446=DIRECTION('',(0.,1.,0.));
#447=DIRECTION('',(0.5,0.,-0.866025403784439));
#448=DIRECTION('',(-0.866025403784439,0.,-0.5));
#449=DIRECTION('',(0.,1.,0.));
#450=DIRECTION('',(-0.5,0.,-0.866025403784439));
#451=DIRECTION('',(-0.866025403784439,0.,0.5));
#452=DIRECTION('',(0.,1.,0.));
#453=DIRECTION('',(-1.,0.,0.));
#454=DIRECTION('',(0.,0.,1.));
#455=DIRECTION('',(0.,1.,0.));
#456=DIRECTION('',(-0.5,0.,0.866025403784439));
#457=DIRECTION('',(0.866025403784439,0.,0.5));
#458=DIRECTION('',(0.,1.,0.));
#459=DIRECTION('',(0.5,0.,0.866025403784439));
#460=DIRECTION('',(0.866025403784439,0.,-0.5));
#461=DIRECTION('',(1.,0.,4.44089209850063E-016));
#462=DIRECTION('',(4.44089209850063E-016,0.,-1.));
#463=DIRECTION('',(0.,1.,0.));
#464=DIRECTION('',(0.,0.,1.));
#465=DIRECTION('',(0.,1.,0.));
#466=DIRECTION('',(0.,0.,1.));
#467=DIRECTION('',(0.,1.,0.));
#468=DIRECTION('',(0.,0.,1.));
#469=DIRECTION('',(0.,1.,0.));
#470=DIRECTION('',(0.,0.,1.));
#471=DIRECTION('',(0.,-1.,0.));
#472=DIRECTION('',(0.,-4.59523212905833E-019,-1.));
#473=DIRECTION('',(0.,1.,0.));
#474=DIRECTION('',(0.,0.,1.));
#475=DIRECTION('',(0.,1.,0.));
#476=DIRECTION('',(0.,0.,1.));
#477=DIRECTION('',(0.,-1.,0.));
#478=DIRECTION('',(0.,-6.02004787071588E-018,-1.));
#479=CARTESIAN_POINT('',(0.,0.,0.));
#480=CARTESIAN_POINT('',(0.,0.500000000000001,0.));
#481=CARTESIAN_POINT('',(17.5,0.500000000000001,0.));
#482=CARTESIAN_POINT('',(0.,2.05779260265935,0.));
#483=CARTESIAN_POINT('',(-13.22,2.05779260265935,0.));
#484=CARTESIAN_POINT('',(0.,0.500000000000001,0.));
#485=CARTESIAN_POINT('',(0.,8.67361737988404E-016,0.));
#486=CARTESIAN_POINT('',(17.5,8.67361737988404E-016,0.));
#487=CARTESIAN_POINT('',(0.,8.67361737988404E-016,0.));
#488=CARTESIAN_POINT('',(-10.,8.67361737988404E-016,0.));
#489=CARTESIAN_POINT('',(0.,8.67361737988404E-016,0.));
#490=CARTESIAN_POINT('',(0.,34.,0.));
#491=CARTESIAN_POINT('',(13.22,34.,0.));
#492=CARTESIAN_POINT('',(0.,34.,0.));
#493=CARTESIAN_POINT('',(10.,34.,0.));
#494=CARTESIAN_POINT('',(0.,34.,0.));
#495=CARTESIAN_POINT('',(0.,2.1,0.));
#496=CARTESIAN_POINT('',(0.,8.67361737988404E-016,0.));
#497=CARTESIAN_POINT('',(0.,-3.46944695195361E-015,0.));
#498=CARTESIAN_POINT('',(0.,17.8763551217328,0.));
#499=CARTESIAN_POINT('',(-10.5655099261702,17.8763551217328,-6.1));
#500=CARTESIAN_POINT('',(-16.,17.8763551217328,-6.18773660453865E-015));
#501=CARTESIAN_POINT('',(-16.,17.8763551217328,9.23760430703401));
#502=CARTESIAN_POINT('',(-16.,17.8763551217328,-9.23760430703401));
#503=CARTESIAN_POINT('',(13.650635094611,17.8763551217328,26.356406460551));
#504=CARTESIAN_POINT('',(8.23993651088983E-015,17.8763551217328,18.475208614068));
#505=CARTESIAN_POINT('',(29.650635094611,17.8763551217328,1.35640646055101));
#506=CARTESIAN_POINT('',(16.,17.8763551217328,9.23760430703401));
#507=CARTESIAN_POINT('',(16.,17.8763551217328,-25.));
#508=CARTESIAN_POINT('',(16.,17.8763551217328,-9.23760430703401));
#509=CARTESIAN_POINT('',(-13.650635094611,17.8763551217328,-26.356406460551));
#510=CARTESIAN_POINT('',(9.97465998686664E-015,17.8763551217328,-18.475208614068));
#511=CARTESIAN_POINT('',(-29.650635094611,17.8763551217328,-1.35640646055102));
#512=CARTESIAN_POINT('',(-4.33680868994202E-016,17.8763551217328,7.5115729936858E-016));
#513=CARTESIAN_POINT('',(0.,10.8763551217328,0.));
#514=CARTESIAN_POINT('',(10.5655099261702,10.8763551217328,6.1));
#515=CARTESIAN_POINT('',(-16.,10.8763551217328,-6.18773660453865E-015));
#516=CARTESIAN_POINT('',(-16.,10.8763551217328,-9.23760430703401));
#517=CARTESIAN_POINT('',(-16.,10.8763551217328,9.23760430703401));
#518=CARTESIAN_POINT('',(-7.99999999999999,10.8763551217328,-13.856406460551));
#519=CARTESIAN_POINT('',(8.23993651088983E-015,10.8763551217328,-18.475208614068));
#520=CARTESIAN_POINT('',(8.,10.8763551217328,-13.856406460551));
#521=CARTESIAN_POINT('',(16.,10.8763551217328,-9.23760430703401));
#522=CARTESIAN_POINT('',(16.,10.8763551217328,1.61851903735698E-015));
#523=CARTESIAN_POINT('',(16.,10.8763551217328,9.23760430703401));
#524=CARTESIAN_POINT('',(8.,10.8763551217328,13.856406460551));
#525=CARTESIAN_POINT('',(6.50521303491303E-015,10.8763551217328,18.475208614068));
#526=CARTESIAN_POINT('',(-7.99999999999999,10.8763551217328,13.856406460551));
#527=CARTESIAN_POINT('',(-4.33680868994202E-016,10.8763551217328,7.5115729936858E-016));
#528=CARTESIAN_POINT('',(0.,17.8763551217328,0.));
#529=CARTESIAN_POINT('',(-16.,17.8763551217328,9.23760430703401));
#530=CARTESIAN_POINT('',(6.50521303491303E-015,17.8763551217328,18.475208614068));
#531=CARTESIAN_POINT('',(13.650635094611,17.8763551217328,26.356406460551));
#532=CARTESIAN_POINT('',(16.,17.8763551217328,9.23760430703401));
#533=CARTESIAN_POINT('',(29.650635094611,17.8763551217328,1.35640646055101));
#534=CARTESIAN_POINT('',(16.,17.8763551217328,-9.23760430703401));
#535=CARTESIAN_POINT('',(16.,17.8763551217328,-25.));
#536=CARTESIAN_POINT('',(8.23993651088983E-015,17.8763551217328,-18.475208614068));
#537=CARTESIAN_POINT('',(-13.650635094611,17.8763551217328,-26.356406460551));
#538=CARTESIAN_POINT('',(-16.,17.8763551217328,-9.23760430703401));
#539=CARTESIAN_POINT('',(-29.650635094611,17.8763551217328,-1.35640646055102));
#540=CARTESIAN_POINT('',(-16.,17.8763551217328,25.));
#541=CARTESIAN_POINT('',(0.,1.73472347597681E-015,0.));
#542=CARTESIAN_POINT('',(0.,1.73472347597681E-015,43.));
#543=CARTESIAN_POINT('',(0.,3.10582854123025,0.));
#544=CARTESIAN_POINT('',(0.,3.10582854123025,43.));
#545=CARTESIAN_POINT('',(0.,34.5868580049541,0.));
#546=CARTESIAN_POINT('',(0.,7.77052658050257,0.));
#547=CARTESIAN_POINT('',(0.,7.77052658050257,14.));
#548=CARTESIAN_POINT('',(0.,1.73472347597681E-015,0.));
#549=CARTESIAN_POINT('',(0.,10.8763551217328,0.));
#550=CARTESIAN_POINT('',(0.,10.8763551217328,14.));
#551=CARTESIAN_POINT('',(0.,34.5868580049541,0.));
#552=CARTESIAN_POINT('',(0.,10.8763551217328,0.));
#553=(
GEOMETRIC_REPRESENTATION_CONTEXT(3)
GLOBAL_UNCERTAINTY_ASSIGNED_CONTEXT((#554))
GLOBAL_UNIT_ASSIGNED_CONTEXT((#560,#556,#555))
REPRESENTATION_CONTEXT('METU_E01V-1002_ST-G_3-4',
'TOP_LEVEL_ASSEMBLY_PART')
);
#554=UNCERTAINTY_MEASURE_WITH_UNIT(LENGTH_MEASURE(2.E-005),#560,
'DISTANCE_ACCURACY_VALUE','Maximum Tolerance applied to model');
#555=(
NAMED_UNIT(*)
SI_UNIT($,.STERADIAN.)
SOLID_ANGLE_UNIT()
);
#556=(
CONVERSION_BASED_UNIT('DEGREE',#558)
NAMED_UNIT(#557)
PLANE_ANGLE_UNIT()
);
#557=DIMENSIONAL_EXPONENTS(0.,0.,0.,0.,0.,0.,0.);
#558=PLANE_ANGLE_MEASURE_WITH_UNIT(PLANE_ANGLE_MEASURE(0.0174532925),#559);
#559=(
NAMED_UNIT(*)
PLANE_ANGLE_UNIT()
SI_UNIT($,.RADIAN.)
);
#560=(
LENGTH_UNIT()
NAMED_UNIT(*)
SI_UNIT(.MILLI.,.METRE.)
);
ENDSEC;
END-ISO-10303-21;
