ISO-10303-21;
HEADER;
/* Generated by software containing ST-Developer
 * from STEP Tools, Inc. (www.steptools.com) 
 */
/* OPTION: using custom schema-name function */

FILE_DESCRIPTION(
/* description */ (''),
/* implementation_level */ '2;1');

FILE_NAME(
/* name */ 'METU_E01V-1001_ST-G_1-2.stp',
/* time_stamp */ '2018-10-05T14:28:15+02:00',
/* author */ (''),
/* organization */ (''),
/* preprocessor_version */ 'ST-DEVELOPER v11',
/* originating_system */ 'SIEMENS UGS NX 6.0',
/* authorisation */ '');

FILE_SCHEMA (('CONFIG_CONTROL_DESIGN'));
ENDSEC;

DATA;
#10=SHAPE_REPRESENTATION_RELATIONSHIP('None',
'relationship between gars64E343bc-None and gars64E343bc-None',#94,#11);
#11=ADVANCED_BREP_SHAPE_REPRESENTATION('gars64E343bc-None',(#147,#148,#149),
#553);
#12=CC_DESIGN_APPROVAL(#24,(#82));
#13=CC_DESIGN_APPROVAL(#25,(#84));
#14=CC_DESIGN_APPROVAL(#26,(#31));
#15=APPROVAL_PERSON_ORGANIZATION(#69,#24,#18);
#16=APPROVAL_PERSON_ORGANIZATION(#70,#25,#19);
#17=APPROVAL_PERSON_ORGANIZATION(#71,#26,#20);
#18=APPROVAL_ROLE('approver');
#19=APPROVAL_ROLE('approver');
#20=APPROVAL_ROLE('approver');
#21=APPROVAL_DATE_TIME(#39,#24);
#22=APPROVAL_DATE_TIME(#40,#25);
#23=APPROVAL_DATE_TIME(#41,#26);
#24=APPROVAL(#27,' ');
#25=APPROVAL(#28,' ');
#26=APPROVAL(#29,' ');
#27=APPROVAL_STATUS('not_yet_approved');
#28=APPROVAL_STATUS('not_yet_approved');
#29=APPROVAL_STATUS('not_yet_approved');
#30=CC_DESIGN_SECURITY_CLASSIFICATION(#31,(#84));
#31=SECURITY_CLASSIFICATION(' ',' ',#32);
#32=SECURITY_CLASSIFICATION_LEVEL('confidential');
#33=CC_DESIGN_DATE_AND_TIME_ASSIGNMENT(#37,#35,(#82));
#34=CC_DESIGN_DATE_AND_TIME_ASSIGNMENT(#38,#36,(#31));
#35=DATE_TIME_ROLE('creation_date');
#36=DATE_TIME_ROLE('classification_date');
#37=DATE_AND_TIME(#52,#42);
#38=DATE_AND_TIME(#53,#43);
#39=DATE_AND_TIME(#54,#44);
#40=DATE_AND_TIME(#55,#45);
#41=DATE_AND_TIME(#56,#46);
#42=LOCAL_TIME(0,0,0.,#47);
#43=LOCAL_TIME(0,0,0.,#48);
#44=LOCAL_TIME(0,0,0.,#49);
#45=LOCAL_TIME(0,0,0.,#50);
#46=LOCAL_TIME(0,0,0.,#51);
#47=COORDINATED_UNIVERSAL_TIME_OFFSET(0,0,.BEHIND.);
#48=COORDINATED_UNIVERSAL_TIME_OFFSET(0,0,.BEHIND.);
#49=COORDINATED_UNIVERSAL_TIME_OFFSET(0,0,.BEHIND.);
#50=COORDINATED_UNIVERSAL_TIME_OFFSET(0,0,.BEHIND.);
#51=COORDINATED_UNIVERSAL_TIME_OFFSET(0,0,.BEHIND.);
#52=CALENDAR_DATE(0,1,1);
#53=CALENDAR_DATE(0,1,1);
#54=CALENDAR_DATE(0,1,1);
#55=CALENDAR_DATE(0,1,1);
#56=CALENDAR_DATE(0,1,1);
#57=CC_DESIGN_PERSON_AND_ORGANIZATION_ASSIGNMENT(#65,#61,(#82,#84));
#58=CC_DESIGN_PERSON_AND_ORGANIZATION_ASSIGNMENT(#66,#62,(#86));
#59=CC_DESIGN_PERSON_AND_ORGANIZATION_ASSIGNMENT(#67,#63,(#84));
#60=CC_DESIGN_PERSON_AND_ORGANIZATION_ASSIGNMENT(#68,#64,(#31));
#61=PERSON_AND_ORGANIZATION_ROLE('creator');
#62=PERSON_AND_ORGANIZATION_ROLE('design_owner');
#63=PERSON_AND_ORGANIZATION_ROLE('design_supplier');
#64=PERSON_AND_ORGANIZATION_ROLE('classification_officer');
#65=PERSON_AND_ORGANIZATION(#79,#72);
#66=PERSON_AND_ORGANIZATION(#79,#73);
#67=PERSON_AND_ORGANIZATION(#79,#74);
#68=PERSON_AND_ORGANIZATION(#79,#75);
#69=PERSON_AND_ORGANIZATION(#79,#76);
#70=PERSON_AND_ORGANIZATION(#79,#77);
#71=PERSON_AND_ORGANIZATION(#79,#78);
#72=ORGANIZATION(' ',' ',' ');
#73=ORGANIZATION(' ',' ',' ');
#74=ORGANIZATION(' ',' ',' ');
#75=ORGANIZATION(' ',' ',' ');
#76=ORGANIZATION(' ',' ',' ');
#77=ORGANIZATION(' ',' ',' ');
#78=ORGANIZATION(' ',' ',' ');
#79=PERSON(' ',' ',' ',(' '),$,$);
#80=SHAPE_DEFINITION_REPRESENTATION(#81,#94);
#81=PRODUCT_DEFINITION_SHAPE('','',#82);
#82=PRODUCT_DEFINITION(' ','',#84,#83);
#83=DESIGN_CONTEXT('',#93,'design');
#84=PRODUCT_DEFINITION_FORMATION_WITH_SPECIFIED_SOURCE(' ',' ',#86,.NOT_KNOWN.);
#85=PRODUCT_RELATED_PRODUCT_CATEGORY('detail','',(#86));
#86=PRODUCT('gars64E343bc','gars64E343bc',' ',(#91));
#87=PRODUCT_CATEGORY_RELATIONSHIP(' ',' ',#89,#90);
#88=PRODUCT_CATEGORY_RELATIONSHIP('','',#90,#85);
#89=PRODUCT_CATEGORY('part',' ');
#90=PRODUCT_CATEGORY(' ','');
#91=MECHANICAL_CONTEXT(' ',#93,'mechanical');
#92=APPLICATION_PROTOCOL_DEFINITION('international standard',
'config_control_design',1994,#93);
#93=APPLICATION_CONTEXT(
'configuration controlled 3D designs of mechanical parts and assemblies');
#94=SHAPE_REPRESENTATION('gars64E343bc-None',(#365),#553);
#95=FACE_OUTER_BOUND('',#221,.T.);
#96=FACE_OUTER_BOUND('',#222,.T.);
#97=FACE_OUTER_BOUND('',#223,.T.);
#98=FACE_OUTER_BOUND('',#224,.T.);
#99=FACE_OUTER_BOUND('',#225,.T.);
#100=FACE_OUTER_BOUND('',#226,.T.);
#101=PLANE('',#375);
#102=PLANE('',#377);
#103=PLANE('',#379);
#104=PLANE('',#380);
#105=PLANE('',#381);
#106=PLANE('',#382);
#107=PLANE('',#383);
#108=PLANE('',#384);
#109=PLANE('',#390);
#110=PLANE('',#393);
#111=LINE('',#494,#129);
#112=LINE('',#497,#130);
#113=LINE('',#499,#131);
#114=LINE('',#501,#132);
#115=LINE('',#503,#133);
#116=LINE('',#505,#134);
#117=LINE('',#509,#135);
#118=LINE('',#512,#136);
#119=LINE('',#514,#137);
#120=LINE('',#516,#138);
#121=LINE('',#518,#139);
#122=LINE('',#520,#140);
#123=LINE('',#523,#141);
#124=LINE('',#524,#142);
#125=LINE('',#526,#143);
#126=LINE('',#528,#144);
#127=LINE('',#530,#145);
#128=LINE('',#532,#146);
#129=VECTOR('',#417,1.);
#130=VECTOR('',#418,1.);
#131=VECTOR('',#419,1.);
#132=VECTOR('',#420,1.);
#133=VECTOR('',#421,1.);
#134=VECTOR('',#422,1.);
#135=VECTOR('',#427,1.);
#136=VECTOR('',#428,1.);
#137=VECTOR('',#429,1.);
#138=VECTOR('',#430,1.);
#139=VECTOR('',#431,1.);
#140=VECTOR('',#432,1.);
#141=VECTOR('',#437,1.);
#142=VECTOR('',#438,1.);
#143=VECTOR('',#441,1.);
#144=VECTOR('',#444,1.);
#145=VECTOR('',#447,1.);
#146=VECTOR('',#450,1.);
#147=MANIFOLD_SOLID_BREP('',#150);
#148=MANIFOLD_SOLID_BREP('',#151);
#149=MANIFOLD_SOLID_BREP('',#152);
#150=CLOSED_SHELL('',(#156,#157,#158,#159));
#151=CLOSED_SHELL('',(#160,#161,#162,#163,#164,#165,#166,#167,#168));
#152=CLOSED_SHELL('',(#169,#170,#171,#172,#173,#174));
#153=CONICAL_SURFACE('',#370,43.,75.);
#154=CONICAL_SURFACE('',#373,11.,75.);
#155=CONICAL_SURFACE('',#387,15.,70.);
#156=ADVANCED_FACE('',(#181,#182),#175,.T.);
#157=ADVANCED_FACE('',(#183,#184),#153,.F.);
#158=ADVANCED_FACE('',(#185,#186),#176,.F.);
#159=ADVANCED_FACE('',(#187,#188),#154,.T.);
#160=ADVANCED_FACE('',(#189,#190),#101,.T.);
#161=ADVANCED_FACE('',(#191,#192),#102,.T.);
#162=ADVANCED_FACE('',(#193,#194),#177,.F.);
#163=ADVANCED_FACE('',(#95),#103,.F.);
#164=ADVANCED_FACE('',(#96),#104,.F.);
#165=ADVANCED_FACE('',(#97),#105,.F.);
#166=ADVANCED_FACE('',(#98),#106,.F.);
#167=ADVANCED_FACE('',(#99),#107,.F.);
#168=ADVANCED_FACE('',(#100),#108,.F.);
#169=ADVANCED_FACE('',(#195,#196),#155,.T.);
#170=ADVANCED_FACE('',(#197,#198),#109,.T.);
#171=ADVANCED_FACE('',(#199,#200),#110,.T.);
#172=ADVANCED_FACE('',(#201,#202),#178,.T.);
#173=ADVANCED_FACE('',(#203,#204),#179,.T.);
#174=ADVANCED_FACE('',(#205,#206),#180,.F.);
#175=CYLINDRICAL_SURFACE('',#368,43.);
#176=CYLINDRICAL_SURFACE('',#372,11.);
#177=CYLINDRICAL_SURFACE('',#378,9.45);
#178=CYLINDRICAL_SURFACE('',#394,10.48);
#179=CYLINDRICAL_SURFACE('',#395,15.);
#180=CYLINDRICAL_SURFACE('',#396,7.5);
#181=FACE_BOUND('',#207,.T.);
#182=FACE_BOUND('',#208,.T.);
#183=FACE_BOUND('',#209,.T.);
#184=FACE_BOUND('',#210,.T.);
#185=FACE_BOUND('',#211,.T.);
#186=FACE_BOUND('',#212,.T.);
#187=FACE_BOUND('',#213,.T.);
#188=FACE_BOUND('',#214,.T.);
#189=FACE_BOUND('',#215,.T.);
#190=FACE_BOUND('',#216,.T.);
#191=FACE_BOUND('',#217,.T.);
#192=FACE_BOUND('',#218,.T.);
#193=FACE_BOUND('',#219,.T.);
#194=FACE_BOUND('',#220,.T.);
#195=FACE_BOUND('',#227,.T.);
#196=FACE_BOUND('',#228,.T.);
#197=FACE_BOUND('',#229,.T.);
#198=FACE_BOUND('',#230,.T.);
#199=FACE_BOUND('',#231,.T.);
#200=FACE_BOUND('',#232,.T.);
#201=FACE_BOUND('',#233,.T.);
#202=FACE_BOUND('',#234,.T.);
#203=FACE_BOUND('',#235,.T.);
#204=FACE_BOUND('',#236,.T.);
#205=FACE_BOUND('',#237,.T.);
#206=FACE_BOUND('',#238,.T.);
#207=EDGE_LOOP('',(#239));
#208=EDGE_LOOP('',(#240));
#209=EDGE_LOOP('',(#241));
#210=EDGE_LOOP('',(#242));
#211=EDGE_LOOP('',(#243));
#212=EDGE_LOOP('',(#244));
#213=EDGE_LOOP('',(#245));
#214=EDGE_LOOP('',(#246));
#215=EDGE_LOOP('',(#247));
#216=EDGE_LOOP('',(#248,#249,#250,#251,#252,#253));
#217=EDGE_LOOP('',(#254));
#218=EDGE_LOOP('',(#255,#256,#257,#258,#259,#260));
#219=EDGE_LOOP('',(#261));
#220=EDGE_LOOP('',(#262));
#221=EDGE_LOOP('',(#263,#264,#265,#266));
#222=EDGE_LOOP('',(#267,#268,#269,#270));
#223=EDGE_LOOP('',(#271,#272,#273,#274));
#224=EDGE_LOOP('',(#275,#276,#277,#278));
#225=EDGE_LOOP('',(#279,#280,#281,#282));
#226=EDGE_LOOP('',(#283,#284,#285,#286));
#227=EDGE_LOOP('',(#287));
#228=EDGE_LOOP('',(#288));
#229=EDGE_LOOP('',(#289));
#230=EDGE_LOOP('',(#290));
#231=EDGE_LOOP('',(#291));
#232=EDGE_LOOP('',(#292));
#233=EDGE_LOOP('',(#293));
#234=EDGE_LOOP('',(#294));
#235=EDGE_LOOP('',(#295));
#236=EDGE_LOOP('',(#296));
#237=EDGE_LOOP('',(#297));
#238=EDGE_LOOP('',(#298));
#239=ORIENTED_EDGE('',*,*,#323,.T.);
#240=ORIENTED_EDGE('',*,*,#324,.F.);
#241=ORIENTED_EDGE('',*,*,#325,.T.);
#242=ORIENTED_EDGE('',*,*,#323,.F.);
#243=ORIENTED_EDGE('',*,*,#326,.T.);
#244=ORIENTED_EDGE('',*,*,#325,.F.);
#245=ORIENTED_EDGE('',*,*,#324,.T.);
#246=ORIENTED_EDGE('',*,*,#326,.F.);
#247=ORIENTED_EDGE('',*,*,#327,.F.);
#248=ORIENTED_EDGE('',*,*,#328,.F.);
#249=ORIENTED_EDGE('',*,*,#329,.T.);
#250=ORIENTED_EDGE('',*,*,#330,.T.);
#251=ORIENTED_EDGE('',*,*,#331,.T.);
#252=ORIENTED_EDGE('',*,*,#332,.T.);
#253=ORIENTED_EDGE('',*,*,#333,.T.);
#254=ORIENTED_EDGE('',*,*,#334,.F.);
#255=ORIENTED_EDGE('',*,*,#335,.F.);
#256=ORIENTED_EDGE('',*,*,#336,.F.);
#257=ORIENTED_EDGE('',*,*,#337,.F.);
#258=ORIENTED_EDGE('',*,*,#338,.F.);
#259=ORIENTED_EDGE('',*,*,#339,.F.);
#260=ORIENTED_EDGE('',*,*,#340,.F.);
#261=ORIENTED_EDGE('',*,*,#327,.T.);
#262=ORIENTED_EDGE('',*,*,#334,.T.);
#263=ORIENTED_EDGE('',*,*,#329,.F.);
#264=ORIENTED_EDGE('',*,*,#341,.T.);
#265=ORIENTED_EDGE('',*,*,#340,.T.);
#266=ORIENTED_EDGE('',*,*,#342,.T.);
#267=ORIENTED_EDGE('',*,*,#339,.T.);
#268=ORIENTED_EDGE('',*,*,#343,.T.);
#269=ORIENTED_EDGE('',*,*,#330,.F.);
#270=ORIENTED_EDGE('',*,*,#342,.F.);
#271=ORIENTED_EDGE('',*,*,#338,.T.);
#272=ORIENTED_EDGE('',*,*,#344,.T.);
#273=ORIENTED_EDGE('',*,*,#331,.F.);
#274=ORIENTED_EDGE('',*,*,#343,.F.);
#275=ORIENTED_EDGE('',*,*,#337,.T.);
#276=ORIENTED_EDGE('',*,*,#345,.T.);
#277=ORIENTED_EDGE('',*,*,#332,.F.);
#278=ORIENTED_EDGE('',*,*,#344,.F.);
#279=ORIENTED_EDGE('',*,*,#336,.T.);
#280=ORIENTED_EDGE('',*,*,#346,.T.);
#281=ORIENTED_EDGE('',*,*,#333,.F.);
#282=ORIENTED_EDGE('',*,*,#345,.F.);
#283=ORIENTED_EDGE('',*,*,#341,.F.);
#284=ORIENTED_EDGE('',*,*,#328,.T.);
#285=ORIENTED_EDGE('',*,*,#346,.F.);
#286=ORIENTED_EDGE('',*,*,#335,.T.);
#287=ORIENTED_EDGE('',*,*,#347,.F.);
#288=ORIENTED_EDGE('',*,*,#348,.T.);
#289=ORIENTED_EDGE('',*,*,#349,.F.);
#290=ORIENTED_EDGE('',*,*,#350,.T.);
#291=ORIENTED_EDGE('',*,*,#351,.T.);
#292=ORIENTED_EDGE('',*,*,#352,.T.);
#293=ORIENTED_EDGE('',*,*,#349,.T.);
#294=ORIENTED_EDGE('',*,*,#348,.F.);
#295=ORIENTED_EDGE('',*,*,#351,.F.);
#296=ORIENTED_EDGE('',*,*,#347,.T.);
#297=ORIENTED_EDGE('',*,*,#352,.F.);
#298=ORIENTED_EDGE('',*,*,#350,.F.);
#299=VERTEX_POINT('',#481);
#300=VERTEX_POINT('',#483);
#301=VERTEX_POINT('',#486);
#302=VERTEX_POINT('',#489);
#303=VERTEX_POINT('',#493);
#304=VERTEX_POINT('',#495);
#305=VERTEX_POINT('',#496);
#306=VERTEX_POINT('',#498);
#307=VERTEX_POINT('',#500);
#308=VERTEX_POINT('',#502);
#309=VERTEX_POINT('',#504);
#310=VERTEX_POINT('',#508);
#311=VERTEX_POINT('',#510);
#312=VERTEX_POINT('',#511);
#313=VERTEX_POINT('',#513);
#314=VERTEX_POINT('',#515);
#315=VERTEX_POINT('',#517);
#316=VERTEX_POINT('',#519);
#317=VERTEX_POINT('',#536);
#318=VERTEX_POINT('',#538);
#319=VERTEX_POINT('',#541);
#320=VERTEX_POINT('',#543);
#321=VERTEX_POINT('',#546);
#322=VERTEX_POINT('',#548);
#323=EDGE_CURVE('',#299,#299,#353,.T.);
#324=EDGE_CURVE('',#300,#300,#354,.T.);
#325=EDGE_CURVE('',#301,#301,#355,.T.);
#326=EDGE_CURVE('',#302,#302,#356,.T.);
#327=EDGE_CURVE('',#303,#303,#357,.T.);
#328=EDGE_CURVE('',#304,#305,#111,.T.);
#329=EDGE_CURVE('',#304,#306,#112,.T.);
#330=EDGE_CURVE('',#306,#307,#113,.T.);
#331=EDGE_CURVE('',#307,#308,#114,.T.);
#332=EDGE_CURVE('',#308,#309,#115,.T.);
#333=EDGE_CURVE('',#309,#305,#116,.T.);
#334=EDGE_CURVE('',#310,#310,#358,.T.);
#335=EDGE_CURVE('',#311,#312,#117,.T.);
#336=EDGE_CURVE('',#313,#311,#118,.T.);
#337=EDGE_CURVE('',#314,#313,#119,.T.);
#338=EDGE_CURVE('',#315,#314,#120,.T.);
#339=EDGE_CURVE('',#316,#315,#121,.T.);
#340=EDGE_CURVE('',#312,#316,#122,.T.);
#341=EDGE_CURVE('',#304,#312,#123,.T.);
#342=EDGE_CURVE('',#316,#306,#124,.T.);
#343=EDGE_CURVE('',#315,#307,#125,.T.);
#344=EDGE_CURVE('',#314,#308,#126,.T.);
#345=EDGE_CURVE('',#313,#309,#127,.T.);
#346=EDGE_CURVE('',#311,#305,#128,.T.);
#347=EDGE_CURVE('',#317,#317,#359,.T.);
#348=EDGE_CURVE('',#318,#318,#360,.T.);
#349=EDGE_CURVE('',#319,#319,#361,.T.);
#350=EDGE_CURVE('',#320,#320,#362,.T.);
#351=EDGE_CURVE('',#321,#321,#363,.T.);
#352=EDGE_CURVE('',#322,#322,#364,.T.);
#353=CIRCLE('',#366,43.);
#354=CIRCLE('',#367,43.);
#355=CIRCLE('',#369,11.);
#356=CIRCLE('',#371,11.);
#357=CIRCLE('',#374,9.45);
#358=CIRCLE('',#376,9.45);
#359=CIRCLE('',#385,15.);
#360=CIRCLE('',#386,10.48);
#361=CIRCLE('',#388,10.48);
#362=CIRCLE('',#389,7.5);
#363=CIRCLE('',#391,15.);
#364=CIRCLE('',#392,7.5);
#365=AXIS2_PLACEMENT_3D('',#479,#397,#398);
#366=AXIS2_PLACEMENT_3D('',#480,#399,#400);
#367=AXIS2_PLACEMENT_3D('',#482,#401,#402);
#368=AXIS2_PLACEMENT_3D('',#484,#403,#404);
#369=AXIS2_PLACEMENT_3D('',#485,#405,#406);
#370=AXIS2_PLACEMENT_3D('',#487,#407,#408);
#371=AXIS2_PLACEMENT_3D('',#488,#409,#410);
#372=AXIS2_PLACEMENT_3D('',#490,#411,#412);
#373=AXIS2_PLACEMENT_3D('',#491,#413,#414);
#374=AXIS2_PLACEMENT_3D('',#492,#415,#416);
#375=AXIS2_PLACEMENT_3D('',#506,#423,#424);
#376=AXIS2_PLACEMENT_3D('',#507,#425,#426);
#377=AXIS2_PLACEMENT_3D('',#521,#433,#434);
#378=AXIS2_PLACEMENT_3D('',#522,#435,#436);
#379=AXIS2_PLACEMENT_3D('',#525,#439,#440);
#380=AXIS2_PLACEMENT_3D('',#527,#442,#443);
#381=AXIS2_PLACEMENT_3D('',#529,#445,#446);
#382=AXIS2_PLACEMENT_3D('',#531,#448,#449);
#383=AXIS2_PLACEMENT_3D('',#533,#451,#452);
#384=AXIS2_PLACEMENT_3D('',#534,#453,#454);
#385=AXIS2_PLACEMENT_3D('',#535,#455,#456);
#386=AXIS2_PLACEMENT_3D('',#537,#457,#458);
#387=AXIS2_PLACEMENT_3D('',#539,#459,#460);
#388=AXIS2_PLACEMENT_3D('',#540,#461,#462);
#389=AXIS2_PLACEMENT_3D('',#542,#463,#464);
#390=AXIS2_PLACEMENT_3D('',#544,#465,#466);
#391=AXIS2_PLACEMENT_3D('',#545,#467,#468);
#392=AXIS2_PLACEMENT_3D('',#547,#469,#470);
#393=AXIS2_PLACEMENT_3D('',#549,#471,#472);
#394=AXIS2_PLACEMENT_3D('',#550,#473,#474);
#395=AXIS2_PLACEMENT_3D('',#551,#475,#476);
#396=AXIS2_PLACEMENT_3D('',#552,#477,#478);
#397=DIRECTION('',(0.,0.,1.));
#398=DIRECTION('',(1.,0.,0.));
#399=DIRECTION('',(0.,1.,0.));
#400=DIRECTION('',(0.,0.,1.));
#401=DIRECTION('',(0.,1.,0.));
#402=DIRECTION('',(0.,0.,1.));
#403=DIRECTION('',(0.,1.,0.));
#404=DIRECTION('',(0.,0.,1.));
#405=DIRECTION('',(0.,1.,0.));
#406=DIRECTION('',(0.,0.,1.));
#407=DIRECTION('',(0.,-1.,0.));
#408=DIRECTION('',(0.,-4.59523212905833E-019,-1.));
#409=DIRECTION('',(0.,1.,0.));
#410=DIRECTION('',(0.,0.,1.));
#411=DIRECTION('',(0.,1.,0.));
#412=DIRECTION('',(0.,0.,1.));
#413=DIRECTION('',(0.,-1.,0.));
#414=DIRECTION('',(0.,-1.15862939428247E-017,-1.));
#415=DIRECTION('',(0.,1.,0.));
#416=DIRECTION('',(-0.866025403784439,0.,-0.5));
#417=DIRECTION('',(4.44089209850063E-016,0.,-1.));
#418=DIRECTION('',(0.866025403784439,0.,0.5));
#419=DIRECTION('',(0.866025403784439,0.,-0.5));
#420=DIRECTION('',(0.,0.,-1.));
#421=DIRECTION('',(-0.866025403784439,0.,-0.5));
#422=DIRECTION('',(-0.866025403784439,0.,0.5));
#423=DIRECTION('',(0.,1.,0.));
#424=DIRECTION('',(-0.866025403784439,0.,-0.5));
#425=DIRECTION('',(0.,-1.,0.));
#426=DIRECTION('',(0.866025403784439,0.,0.5));
#427=DIRECTION('',(-4.44089209850063E-016,0.,1.));
#428=DIRECTION('',(-0.866025403784439,0.,0.5));
#429=DIRECTION('',(-0.866025403784439,0.,-0.5));
#430=DIRECTION('',(0.,0.,-1.));
#431=DIRECTION('',(0.866025403784439,0.,-0.5));
#432=DIRECTION('',(0.866025403784439,0.,0.5));
#433=DIRECTION('',(0.,-1.,0.));
#434=DIRECTION('',(0.866025403784439,0.,0.5));
#435=DIRECTION('',(0.,-1.,0.));
#436=DIRECTION('',(0.866025403784439,0.,0.5));
#437=DIRECTION('',(0.,-1.,0.));
#438=DIRECTION('',(0.,1.,0.));
#439=DIRECTION('',(0.5,0.,-0.866025403784439));
#440=DIRECTION('',(-0.866025403784439,0.,-0.5));
#441=DIRECTION('',(0.,1.,0.));
#442=DIRECTION('',(-0.5,0.,-0.866025403784439));
#443=DIRECTION('',(-0.866025403784439,0.,0.5));
#444=DIRECTION('',(0.,1.,0.));
#445=DIRECTION('',(-1.,0.,0.));
#446=DIRECTION('',(0.,0.,1.));
#447=DIRECTION('',(0.,1.,0.));
#448=DIRECTION('',(-0.5,0.,0.866025403784439));
#449=DIRECTION('',(0.866025403784439,0.,0.5));
#450=DIRECTION('',(0.,1.,0.));
#451=DIRECTION('',(0.5,0.,0.866025403784439));
#452=DIRECTION('',(0.866025403784439,0.,-0.5));
#453=DIRECTION('',(1.,0.,4.44089209850063E-016));
#454=DIRECTION('',(4.44089209850063E-016,0.,-1.));
#455=DIRECTION('',(0.,-1.,0.));
#456=DIRECTION('',(1.,0.,0.));
#457=DIRECTION('',(0.,-1.,0.));
#458=DIRECTION('',(-1.,0.,0.));
#459=DIRECTION('',(0.,-1.,0.));
#460=DIRECTION('',(-1.,1.99377088023898E-017,0.));
#461=DIRECTION('',(0.,-1.,0.));
#462=DIRECTION('',(-1.,0.,0.));
#463=DIRECTION('',(0.,-1.,0.));
#464=DIRECTION('',(1.,0.,0.));
#465=DIRECTION('',(0.,1.,0.));
#466=DIRECTION('',(1.,0.,0.));
#467=DIRECTION('',(0.,-1.,0.));
#468=DIRECTION('',(1.,0.,0.));
#469=DIRECTION('',(0.,1.,0.));
#470=DIRECTION('',(-1.,0.,0.));
#471=DIRECTION('',(0.,-1.,0.));
#472=DIRECTION('',(-1.,0.,0.));
#473=DIRECTION('',(0.,1.,0.));
#474=DIRECTION('',(1.,0.,0.));
#475=DIRECTION('',(0.,1.,0.));
#476=DIRECTION('',(1.,0.,0.));
#477=DIRECTION('',(0.,1.,0.));
#478=DIRECTION('',(1.,0.,0.));
#479=CARTESIAN_POINT('',(0.,0.,0.));
#480=CARTESIAN_POINT('',(0.,1.73472347597681E-015,0.));
#481=CARTESIAN_POINT('',(0.,1.73472347597681E-015,43.));
#482=CARTESIAN_POINT('',(0.,3.10582854123025,0.));
#483=CARTESIAN_POINT('',(0.,3.10582854123025,43.));
#484=CARTESIAN_POINT('',(0.,35.3907055822474,0.));
#485=CARTESIAN_POINT('',(0.,8.57437415779594,0.));
#486=CARTESIAN_POINT('',(0.,8.57437415779594,11.));
#487=CARTESIAN_POINT('',(0.,1.73472347597681E-015,0.));
#488=CARTESIAN_POINT('',(0.,11.6802026990262,0.));
#489=CARTESIAN_POINT('',(0.,11.6802026990262,11.));
#490=CARTESIAN_POINT('',(0.,35.3907055822474,0.));
#491=CARTESIAN_POINT('',(0.,11.6802026990262,0.));
#492=CARTESIAN_POINT('',(0.,17.6802026990262,0.));
#493=CARTESIAN_POINT('',(-8.18394006576295,17.6802026990262,-4.725));
#494=CARTESIAN_POINT('',(-13.5,17.6802026990262,-5.32037486655025E-015));
#495=CARTESIAN_POINT('',(-13.5,17.6802026990262,7.79422863405995));
#496=CARTESIAN_POINT('',(-13.5,17.6802026990262,-7.79422863405995));
#497=CARTESIAN_POINT('',(14.900635094611,17.6802026990262,24.1913429510899));
#498=CARTESIAN_POINT('',(1.30104260698261E-015,17.6802026990262,15.5884572681199));
#499=CARTESIAN_POINT('',(28.400635094611,17.6802026990262,-0.808657048910079));
#500=CARTESIAN_POINT('',(13.5,17.6802026990262,7.79422863405995));
#501=CARTESIAN_POINT('',(13.5,17.6802026990262,-25.));
#502=CARTESIAN_POINT('',(13.5,17.6802026990262,-7.79422863405995));
#503=CARTESIAN_POINT('',(-14.900635094611,17.6802026990262,-24.1913429510899));
#504=CARTESIAN_POINT('',(8.23993651088983E-015,17.6802026990262,-15.5884572681199));
#505=CARTESIAN_POINT('',(-28.400635094611,17.6802026990262,0.808657048910072));
#506=CARTESIAN_POINT('',(-4.33680868994202E-016,17.6802026990262,7.5115729936858E-016));
#507=CARTESIAN_POINT('',(0.,11.6802026990262,0.));
#508=CARTESIAN_POINT('',(8.18394006576295,11.6802026990262,4.725));
#509=CARTESIAN_POINT('',(-13.5,11.6802026990262,-5.32037486655025E-015));
#510=CARTESIAN_POINT('',(-13.5,11.6802026990262,-7.79422863405995));
#511=CARTESIAN_POINT('',(-13.5,11.6802026990262,7.79422863405995));
#512=CARTESIAN_POINT('',(-6.75,11.6802026990262,-11.6913429510899));
#513=CARTESIAN_POINT('',(7.37257477290143E-015,11.6802026990262,-15.5884572681199));
#514=CARTESIAN_POINT('',(6.75,11.6802026990262,-11.6913429510899));
#515=CARTESIAN_POINT('',(13.5,11.6802026990262,-7.79422863405995));
#516=CARTESIAN_POINT('',(13.5,11.6802026990262,1.61851903735698E-015));
#517=CARTESIAN_POINT('',(13.5,11.6802026990262,7.79422863405995));
#518=CARTESIAN_POINT('',(6.75,11.6802026990262,11.6913429510899));
#519=CARTESIAN_POINT('',(4.77048955893622E-015,11.6802026990262,15.5884572681199));
#520=CARTESIAN_POINT('',(-6.75,11.6802026990262,11.6913429510899));
#521=CARTESIAN_POINT('',(-4.33680868994202E-016,11.6802026990262,7.5115729936858E-016));
#522=CARTESIAN_POINT('',(0.,17.6802026990262,0.));
#523=CARTESIAN_POINT('',(-13.5,17.6802026990262,7.79422863405995));
#524=CARTESIAN_POINT('',(4.77048955893622E-015,17.6802026990262,15.5884572681199));
#525=CARTESIAN_POINT('',(14.900635094611,17.6802026990262,24.1913429510899));
#526=CARTESIAN_POINT('',(13.5,17.6802026990262,7.79422863405995));
#527=CARTESIAN_POINT('',(28.400635094611,17.6802026990262,-0.808657048910079));
#528=CARTESIAN_POINT('',(13.5,17.6802026990262,-7.79422863405995));
#529=CARTESIAN_POINT('',(13.5,17.6802026990262,-25.));
#530=CARTESIAN_POINT('',(7.37257477290143E-015,17.6802026990262,-15.5884572681199));
#531=CARTESIAN_POINT('',(-14.900635094611,17.6802026990262,-24.1913429510899));
#532=CARTESIAN_POINT('',(-13.5,17.6802026990262,-7.79422863405995));
#533=CARTESIAN_POINT('',(-28.400635094611,17.6802026990262,0.808657048910072));
#534=CARTESIAN_POINT('',(-13.5,17.6802026990262,25.));
#535=CARTESIAN_POINT('',(0.,0.500000000000001,0.));
#536=CARTESIAN_POINT('',(15.,0.500000000000001,0.));
#537=CARTESIAN_POINT('',(0.,2.14514545888323,0.));
#538=CARTESIAN_POINT('',(-10.48,2.14514545888323,0.));
#539=CARTESIAN_POINT('',(0.,0.500000000000001,0.));
#540=CARTESIAN_POINT('',(0.,28.,0.));
#541=CARTESIAN_POINT('',(-10.48,28.,0.));
#542=CARTESIAN_POINT('',(0.,28.,0.));
#543=CARTESIAN_POINT('',(7.5,28.,0.));
#544=CARTESIAN_POINT('',(0.,28.,0.));
#545=CARTESIAN_POINT('',(0.,8.67361737988404E-016,0.));
#546=CARTESIAN_POINT('',(15.,8.67361737988404E-016,0.));
#547=CARTESIAN_POINT('',(0.,8.67361737988404E-016,0.));
#548=CARTESIAN_POINT('',(-7.5,8.67361737988404E-016,0.));
#549=CARTESIAN_POINT('',(0.,8.67361737988404E-016,0.));
#550=CARTESIAN_POINT('',(0.,3.,0.));
#551=CARTESIAN_POINT('',(0.,8.67361737988404E-016,0.));
#552=CARTESIAN_POINT('',(0.,-1.73472347597681E-015,0.));
#553=(
GEOMETRIC_REPRESENTATION_CONTEXT(3)
GLOBAL_UNCERTAINTY_ASSIGNED_CONTEXT((#554))
GLOBAL_UNIT_ASSIGNED_CONTEXT((#560,#556,#555))
REPRESENTATION_CONTEXT('METU_E01V-1001_ST-G_1-2',
'TOP_LEVEL_ASSEMBLY_PART')
);
#554=UNCERTAINTY_MEASURE_WITH_UNIT(LENGTH_MEASURE(2.E-005),#560,
'DISTANCE_ACCURACY_VALUE','Maximum Tolerance applied to model');
#555=(
NAMED_UNIT(*)
SI_UNIT($,.STERADIAN.)
SOLID_ANGLE_UNIT()
);
#556=(
CONVERSION_BASED_UNIT('DEGREE',#558)
NAMED_UNIT(#557)
PLANE_ANGLE_UNIT()
);
#557=DIMENSIONAL_EXPONENTS(0.,0.,0.,0.,0.,0.,0.);
#558=PLANE_ANGLE_MEASURE_WITH_UNIT(PLANE_ANGLE_MEASURE(0.0174532925),#559);
#559=(
NAMED_UNIT(*)
PLANE_ANGLE_UNIT()
SI_UNIT($,.RADIAN.)
);
#560=(
LENGTH_UNIT()
NAMED_UNIT(*)
SI_UNIT(.MILLI.,.METRE.)
);
ENDSEC;
END-ISO-10303-21;
